PrimaNota.ru - самый крупный в мире бесплатный архив песенных текстов, аккордов, табулатур и нот


Amon Amarth - Avenger - текст песни, бас-таба, видео

Регистрация Запомнить меня
Войти через:  Facebook Google Twitter Vk Yandex Mail.ru

Amon Amarth - Avenger - текст песни, бас-таба, видео

Печатать
Просмотров: 290
Уроки эстрадного вокала в Санкт-Петербурге
Song:Avenger
Artist:Amon Amarth
Album:The Avenger
Bassist: Ted Lundstrom
Tuning: BEAD (technically he plays a five string, but seeing as the song doesnt use the 
string I didnt bother tabbing it out)

 Riff 1
|-------------|
 |------------|
 |------------|
 |--555-0~----|

Riff 2
|----------|
|----------|
|----------|
|--333-5~--|

Riff 1

Riff 3
|-------------------------------------------|
|-------------------------------------------|
|-------------------------------------------|
|--33-22-2-33-3-2-3-7777-7777-7777-7-555-0--|

Riff 4
|---------------------------------------------|
|---------------------------------------------|
|---------------------------------------------|
|--8888-8888-8888-77-55-7777-7777-7777-88-77--|

Riff 5
|---------------|
|---------------|
|---------------|
|--8~-7~-5~-3~--|

Riff 6
|--------------------------------|
|--------------------------------|
|--------------------------------|
|--0--00-7777-7777-7777-7-555-0--|

Riff 3
Riff 4
Riff 1
Riff 2

Riff 7
|------------------|
|------------------|
|--6-6-66-6--------|
|-----------555-0--|

Riff 3

Riff 8
|------------------------------------------|
|------------------------------------------|
|------------------------------------------|
|--8888-8888-8888-8888-7777-7777-777-7777--|

Riff 9
|-------------|
|-------------|
|-------------|
|--0~-7~-555--|

Ending
|---------------|
|---------------|
|---------------|
|--00-00-0~-00--|


There you go. Please rate and enjoy.
Добавлено: 16.03.2012
Другие материалы по этой песне:
  • Аккорды и текст

Страница создана 16.03.2012
http://primanota.ru/amon-amarth/avenger-chords.htm
Привет, Гость.
Предлагаем пройти революционный курс по гитаре.
Подарок от PrimaNota.Ru, забирай!