PrimaNota.ru - самый крупный в мире бесплатный архив песенных текстов, аккордов, табулатур и нот


Amon Amarth - Return Of The Gods - таба, видео

Регистрация Запомнить меня
Войти через:  Facebook Google Twitter Vk Yandex Mail.ru

Amon Amarth - Return Of The Gods - таба, видео

Печатать
Просмотров: 158
Уроки эстрадного вокала в Санкт-Петербурге
this is my first tab, but the song was easy to figure out, took me like an hour 
and a half or less! but lets get down to business, shall we?

tuning
B standard or Drop A(only effects some parts, those parts i will make clear)
B E A D G B . A E A D G B

TP = Tremolo picking
. = palm muting

B standard .....................Drop A

intro x4
|-----------------------------| |-------------------------|
|-----------------------------| |-------------------------|
|-----------------------------| |-------------------------|
|-7----9-10---9-7----9-10---9-| |-7----9-10---9-7----9-10-|
|-7----9-10---9-7----9-10---9-| |-7----9-10---9-7----9-10-|
|-5----7-8----7-5----7-8----7-| |-7----9-10---9-7----9-10-|

random harmony
|-----------------------------| 
|-----------------------------|
|----------------------7------|
|-9----7-9----9----7-9--------|
|-----------------------------|
|-----------------------------|

back to intro, 2x
|-----------------------------| |-------------------------|
|-----------------------------| |-------------------------|
|-----------------------------| |-------------------------|
|-7----9-10---9-7----9-10---9-| |-7----9-10---9-7----9-10-|
|-7----9-10---9-7----9-10---9-| |-7----9-10---9-7----9-10-|
|-5----7-8----7-5----7-8----7-| |-7----9-10---9-7----9-10-|

main epic riff
x8
|-----------------------------| 
|-----------------------------|
|-----------------------------|
|-----10-9-7-------7-----9-10-|
|-7-7---------9-9----9-9------|
|-----------------------------|


B standard..Drop A

x1
|---------| |---------|
|---------| |---------|
|---------| |---------|
|-6-6-6-6-| |-6-6-6-6-|
|-6-6-6-6-| |-6-6-6-6-|
|-4-4-4-4-| |-6-6-6-6-|
  . . . .     . . . .

main epic riff
x4
|-----------------------------|
|-----------------------------|
|-----------------------------|
|-----10-9-7-------7-----9-10-|
|-7-7---------9-9----9-9------|
|-----------------------------| 
B standard. Drop A
|---| |---|<----|
|---| |---|sustain these notes and slightly kill them off and wait for a
|---| |---|little feedback if you wanna go by the song exactly lmao
|-6-| |-6-|
|-6-| |-6-|
|-4-| |-6-|
  .     .  

cool harmony mid song
rhythm x 4

slow tremolo picking throughout
|---------------------------|
|---------------------------|
|-------------------------7-|
|-9----7-9--10--9----7-9----|
|---------------------------|
|---------------------------|

lead harmony
x2

slow tremolo picking throughout
|------------------------------------------------|
|-------------------------7--9------10-9--7----6-|
|-9----7-9--10--9----7-9-------------------------|
|------------------------------------------------|
|------------------------------------------------|
|------------------------------------------------|

main epic riff
x4
|-----------------------------|
|-----------------------------|
|-----------------------------|
|-----10-9-7-------7-----9-10-|
|-7-7---------9-9----9-9------|
|-----------------------------| 

B standard..Drop A

x1
|---------| |---------|
|---------| |---------|
|---------| |---------|
|-6-6-6-6-| |-6-6-6-6-|
|-6-6-6-6-| |-6-6-6-6-|
|-4-4-4-4-| |-6-6-6-6-|
  . . . .     . . . .

main epic riff
x4
|-----------------------------|
|-----------------------------|
|-----------------------------|
|-----10-9-7-------7-----9-10-|
|-7-7---------9-9----9-9------|
|-----------------------------|

back to intro, 2x
|-----------------------------| |-------------------------|
|-----------------------------| |-------------------------|
|-----------------------------| |-------------------------|
|-7----9-10---9-7----9-10---9-| |-7----9-10---9-7----9-10-|
|-7----9-10---9-7----9-10---9-| |-7----9-10---9-7----9-10-|
|-5----7-8----7-5----7-8----7-| |-7----9-10---9-7----9-10-|

main epic riff
x4
|-----------------------------|
|-----------------------------|
|-----------------------------|
|-----10-9-7-------7-----9-10-|
|-7-7---------9-9----9-9------|
|-----------------------------|

and for the end just let the 3rd and 2nd strings ring out
Добавлено: 02.05.2012
Другие материалы по этой песне:
  • Аккорды и текст

Страница создана 02.05.2012
http://primanota.ru/amon-amarth/return-of-the-gods-chords.htm
Привет, Гость.
Предлагаем пройти революционный курс по гитаре.
Подарок от PrimaNota.Ru, забирай!