PrimaNota.ru - самый крупный в мире бесплатный архив песенных текстов, аккордов, табулатур и нот


Amon Amarth - Releasing Surturs Fire - текст песни, таба, видео

Регистрация Запомнить меня
Войти через:  Facebook Google Twitter Vk Yandex Mail.ru

Amon Amarth - Releasing Surturs Fire - текст песни, таба, видео

Печатать
Просмотров: 305
Уроки эстрадного вокала в Санкт-Петербурге
Song: Releasing Surtur's Fire
Artist: Amon Amarth
Tuning: Drop B (B F# B E G# C#)
Yes, I know Amon Amarth plays in B standard, this is just the way I play it.
Key
. = Palm Mute
~ = Tremolo Pick

Intro
|-------------------------------------|
|-------------------------------------|
|-------------------------------------|
|-------------------------------------|
|-0----------0---------0--------0-----|
|-0----------0---------0--------0-----|


Verse 1 (Gtr I)
|------------------------------------------|
|------------------------------------------|
|------------------------------------------|
|------------------------------------------|
|-5~~~~~~~~7~~8~~10~~8~~7~~~~~~~3~~5~~7~~--|
|------------------------------------------|

Gtr II

|------------------------------------------|
|------------------------------------------|
|------------------------------------------|
|------------------------------------------|
|-5~~~~~~~~~~~~~~~~~~~~~3~~~~~~~~~~~~~~~~~-|
|------------------------------------------|

Gtr I (continued)
------------------------------------------|
------------------------------------------|
------------------------------------------|
-------------------------------8~~7~~5~~--|
-5~~~~~~~~7~~8~~10~~8~~7~~~~~~------------|
------------------------------------------|

Gtr II (continued)
|------------------------------------------|
|------------------------------------------|
|------------------------------------------|
|------------------------------------------|
|-1~~~~~~~~~~~~~~~~~~~~3~~~~~~~~~~~~~~~~~~~|
|------------------------------------------|

"Pre-Chorus"
|-------------------------------------------------|
|-------------------------------------------------|
|-------------------------------------------------|
|-------------------------------------------------|
|--0---0---0---0-----0-0-0---0---0---0---0---0-0--|
|--0---0---0---0-----0-0-0---0---0---0---0---0-0--|
   .   .   .   .     . . .   .   .   .   .   . .


Chorus (I only know the lead part, sorry)
|------------------------------------------------------------------|
|------------------------------------------------------------------|
|------------------------------------------------------------------|
|--------------------------7---------------------------------------|
|--5-----7-----8-----5---------8---7-----7-----7-----8-----10---8--|
|----000---000---000---000---0---0---777---777---777---777----7----|
    ...   ...   ...   ...   .   .   ...   ...   ...   ...    .


Verse 2
|--------------------------------------------------------------------|
|--------------------------------------------------------------------|
|--------------------------------------------------------------------|
|-7~~~~~------7~~---------10~~~~~~~9~~~--------10~~9~~0--------------|
|-------5~~~~~---5~~0~~3~~-------------7~~~~~~~---------1~~~~~6~~~~~-|
|--------------------------------------------------------------------|


After Verse 2, play the Chorus through a few times.


Pre-Solo


|----------------------------------------------------|
|----------------------------------------------------|
|----------------------------------------------------|
|----------------------------------------------------|
|-0----2----3----0--7--3--2--------3----5----3----2--|
|-0----2----3----0--7--3--2--------3----5----3----2--|

Rest of the solo is on the way, but here's most of the very end of it.

Solo

|--------------------------------------------------------|
|--------------------------------------------------------|
|---7--------7---9---10---12-10-9----12-10-9------10/12--|
|---------7----------------------------------------------|
|--------------------------------------------------------|
|--------------------------------------------------------|


---------------------------10---10---10b11--10--------10--12--13--15-13-12---15-13-12--|
-10-11---10--11--11/13-13--------------------------10----------------------------------|
-----------------------12--------------------------------------------------------------|
---------------------------------------------------------------------------------------|
---------------------------------------------------------------------------------------|
---------------------------------------------------------------------------------------|


----------------------------------------------------12---------12b13---10---|
--9b10--9b10--8---10-11--10--8-bunch o' pulloffs----------------------------|
----------------------------------------------------------------------------|
----------------------------------------------------------------------------|
----------------------------------------------------------------------------|
----------------------------------------------------------------------------|


After solo, go back and play first verse, then ending

Ending (just fades out)

|-------------------------------------|
|-------------------------------------|
|-------------------------------------|
|-------------------------------------|
|-0----------7----3-----------5----0--|
|-0----------7----3-----------5----0--|
Добавлено: 24.07.2012
Другие материалы по этой песне:

Страница создана 04.03.2012
http://primanota.ru/amon-amarth/releasing-surturs-fire-chords.htm
Привет, Гость.
Предлагаем пройти революционный курс по гитаре.
Подарок от PrimaNota.Ru, забирай!