PrimaNota.ru - самый крупный в мире бесплатный архив песенных текстов, аккордов, табулатур и нот


Amon Amarth - Guardians Of Asgaard - текст песни, таба, бас-таба, видео

Регистрация Запомнить меня
Войти через:  Facebook Google Twitter Vk Yandex Mail.ru

Amon Amarth - Guardians Of Asgaard - текст песни, таба, бас-таба, видео

Печатать
Просмотров: 743
Авторы музыки: Ted Lundström, Johan Söderberg, Olavi Mikkonen, Fredrik Andersson, Johan Hegg
Авторы текста: Ted Lundström, Johan Söderberg, Olavi Mikkonen, Fredrik Andersson, Johan Hegg
This is my first tab, but its pretty much right. I noticed nobody had the solo yet so I decided
to give it a shot. If anybody wants
the rest of the song just contact me.
E-mail, hoobercraft@gmail.com

Artist- Amon Amarth
Song- Guardians of Asgaard (solo)
Album- Twilight of the Thunder God


b---------------------------------------------------------------------|
G----------------12---------------------------------------------------|
D-------9-11-12b----12-11-9-8-9-11-----14-13-16-----------------------|
A--9-11----------------------------11~----------14h16-14-13-14-13-----|
E---------------------------------------------------------------------|
B---------------------------------------------------------------------|
     When you bend the 12th note on the D string bend down the E string     as well and 
the 12th fret on the E string while holding the bend.

b---------------------------------------------------------------------|
G-------------------------17------19---------22-21-22-21--17-16-14-16-|
D----------------------------14-13--14-13-14--------------------------|
A-14p13-14p13-14p13-14p13---------------------------------------------|
E---------------------------------------------------------------------|
B---------------------------------------------------------------------|


b---------------------------------------------------------------------|
G-14-12-14-12-10-12-10-9-10-9-7-10-9~--10~--12~--14~~-----------------|
D---------------------------------------------------------------------|
A---------------------------------------------------------------------|
E---------------------------------------------------------------------|
B---------------------------------------------------------------------|


Thats pretty much it.
Добавлено: 17.07.2012
Другие материалы по этой песне:

Страница создана 25.02.2012
http://primanota.ru/amon-amarth/guardians-of-asgaard-chords.htm
Привет, Гость.
Предлагаем пройти революционный курс по гитаре.
Подарок от PrimaNota.Ru, забирай!