PrimaNota.ru - самый крупный в мире бесплатный архив песенных текстов, аккордов, табулатур и нот


All That Remains - Not Fading - таба, видео

Регистрация Запомнить меня
Войти через:  Facebook Google Twitter Vk Yandex Mail.ru

All That Remains - Not Fading - таба, видео

Печатать
Просмотров: 183
Уроки эстрадного вокала в Санкт-Петербурге
-------------------------------------------------------------------------------
                             Not Fading - All That Remains
-------------------------------------------------------------------------------


Tuning:Half step down

eb|------------------------------------------------------------------------------|
Bb|------------------------------------------------------------------------------|
Gb|------------6-----------------------------------------------------------------|
Db|4---------4---4--4/7-77--------------------------------9---7-7----------------|
Ab|2-222-222--2-----2/5-55-5------------7-5----7--------7--7-------4--4--4--5-2--|
Eb|------------------------3-3333-3333-3-3-353-5-555-555-5--55-5---222222-22-2-25|


Добавлено: 10.11.2015
Вам также может быть интересно:
Другие материалы по этой песне:
  • Аккорды и текст

Страница создана 10.11.2015
http://primanota.ru/all-that-remains/not-fading-chords.htm
Привет, Гость.
Предлагаем пройти революционный курс по гитаре.
Подарок от PrimaNota.Ru, забирай!