PrimaNota.ru - самый крупный в мире бесплатный архив песенных текстов, аккордов, табулатур и нот


All That Remains - Behind Silence And Solitude - текст песни, таба, бас-таба, видео

Регистрация Запомнить меня
Войти через:  Facebook Google Twitter Vk Yandex Mail.ru

All That Remains - Behind Silence And Solitude - текст песни, таба, бас-таба, видео

Печатать
Просмотров: 119
song: Behind Silence And Solitude
artist: All That Remains
album: Behind Silence And Solitude
year: 2002
tuning: B-Standard (BEADF#B)

This is an old All That Remains song from the album Behind Silence And Solitude, and
is the first song on the album. This is not a perfect tab, this is the best I can do. I'm
good at tabbing solos or hearing out the solos. It takes me a while to learn and tab the 
correctly. So enjoy the tab. And if you guys figure out the solo, rhythm, and the
just tab it.

intro: (played four times) Both Guitar I & II
B|--------------------------------------------------------------------------|
F#|-------------------------------------------------------------------------|
D|--------------------------------------------------------------------------|
A|--------------------------------------------------------------------------|
E|---------9---10---7h9------9---10---7h9------9---10---9*-----9----7-5-----|
B|-----000---0----0-------88---8----8-------77---7----7-----88---88---------|
       ...   .    .       ..   .    .       ..   .    .     ..   ..

B|--------------------------------------------------------------------------|
F#|-------------------------------------------------------------------------|
D|--------------------------------------------------------------------------|
A|--------------------------------------------------------------------------|
E|---------9---10---7h9------9---10---7h9------9---10---9*------9-----7-----|
B|-----000---0----0-------88---8----8-------77---7----7-----888---888-------|
       ...   .    .       ..   .    .       ..   .    .     ...   ...

harmonized intro: (played twice) Guitar II
B|---------------------------------------------------------------------------------|
F#|--------------------------------------------------------------------------------|
D|---------------------------------------------------------------------------------|
A|---------------------------------------------------------------------------------|
E|------------14----15----12h14----9---10---7h9------9---10---9*------9----7-5-----|
B|-----121212----12----12-------88---8----8-------77---7----7-----88---88----------|
        . . .     .     .       ..   .    .       ..   .    .     ..   ..

B|---------------------------------------------------------------------------------|
F#|--------------------------------------------------------------------------------|
D|---------------------------------------------------------------------------------|
A|---------------------------------------------------------------------------------|
E|------------14----15----12h14----9---10---7h9------9---10---9*------9-----7------|
B|-----121212----12----12-------88---8----8-------77---7----7-----888---888--------|
        . . .     .     .       ..   .    .       ..   .    .     ...   ..       .

prelude: (played once) Both Guitar I & II
B|---------------------------------------------------------------------------------|
F#|--------------------------------------------------------------------------------|
D|---------------------------------------------------------------------------------|
A|-------------------------------------------------------9h10h9----9---------------|
E|--------10---9--10----10---9---10------12----10----12---------12---12-10-9/7-----|
B|-----77----7---7---88----8---8----1010----10----10-------------------------------|
       ..    .   .   ..    .   .     . .     .     .

B|---------------------------------------------------------------------------------|
F#|--------------------------------------------------------------------------------|
D|---------------------------------------------------------------------------------|
A|-------------------------------------------------------9h109----9h10h9h10h12-----|
E|--------10---9--10----10---9---10------12----10----12--------12------------------|
B|-----77----7---7---88----8---8----1010----10----10-------------------------------|
       ..    .   .   ..    .   .     . .     .     .

verse: (played four times) Both Guitar I & II
B|--------------------------------------------------------------------------|
F#|-------------------------------------------------------------------------|
D|--------------------------------------------------------------------------|
A|--------------------------------------------------------------------------|
E|---------9---10---7h9------9---10---7h9------9---10---9*-----9----7-5-----|
B|-----000---0----0-------88---8----8-------77---7----7-----88---88---------|
       ...   .    .       ..   .    .       ..   .    .     ..   ..

B|--------------------------------------------------------------------------|
F#|-------------------------------------------------------------------------|
D|--------------------------------------------------------------------------|
A|--------------------------------------------------------------------------|
E|---------9---10---7h9------9---10---7h9------9---10---9*------9-----7-----|
B|-----000---0----0-------88---8----8-------77---7----7-----888---888-------|
       ...   .    .       ..   .    .       ..   .    .     ...   ...

harmonized verse: (played twice) Guitar II
B|---------------------------------------------------------------------------------|
F#|--------------------------------------------------------------------------------|
D|---------------------------------------------------------------------------------|
A|---------------------------------------------------------------------------------|
E|------------14----15----12h14----9---10---7h9------9---10---9*------9----7-5-----|
B|-----121212----12----12-------88---8----8-------77---7----7-----88---88----------|
        . . .     .     .       ..   .    .       ..   .    .     ..   ..

B|---------------------------------------------------------------------------------|
F#|--------------------------------------------------------------------------------|
D|---------------------------------------------------------------------------------|
A|---------------------------------------------------------------------------------|
E|------------14----15----12h14----9---10---7h9------9---10---9*------9-----7------|
B|-----121212----12----12-------88---8----8-------77---7----7-----888---888--------|
        . . .     .     .       ..   .    .       ..   .    .     ...   ..

chorus: (played twice) Both Guitar I & II
B|---------------------------------------------------------------------------------|
F#|--------------------------------------------------------------------------------|
D|---------------------------------------------------------------------------------|
A|-------------------------------------------------------9h10h9----9---------------|
E|--------10---9--10----10---9---10------12----10----12---------12---12-10-9/7-----|
B|-----77----7---7---88----8---8----1010----10----10-------------------------------|
       ..    .   .   ..    .   .     . .     .     .

B|---------------------------------------------------------------------------------|
F#|--------------------------------------------------------------------------------|
D|---------------------------------------------------------------------------------|
A|-------------------------------------------------------9h109----9h10h9h10h12-----|
E|--------10---9--10----10---9---10------12----10----12--------12------------------|
B|-----77----7---7---88----8---8----1010----10----10-------------------------------|
       ..    .   .   ..    .   .     . .     .     .

harmonized chorus: (played once) Guitar II
B|---------------------------------------------------------------------------------|
F#|--------------------------------------------------------------------------------|
D|------------------------------------------------------9h11h9----9----------------|
A|--------9---7---9----10---9---10------12----10----12---------12---12-10-9/7------|
E|---------------------------------------------------------------------------------|
B|-----77---7---7---88----8---8----1010----10----10--------------------------------|
       ..   .   .   ..    .   .     . .     .     .

B|---------------------------------------------------------------------------------|
F#|--------------------------------------------------------------------------------|
D|------------------------------------------------------9h11h9----9h119h11h12------|
A|--------9---7---9----10---9---10------12----10----12---------12------------------|
E|---------------------------------------------------------------------------------|
B|-----77---7---7---88----8---8----1010----10----10--------------------------------|
       ..   .   .   ..    .   .     . .     .     .

verse: (played four times) Both Guitar I & II
B|--------------------------------------------------------------------------|
F#|-------------------------------------------------------------------------|
D|--------------------------------------------------------------------------|
A|--------------------------------------------------------------------------|
E|---------9---10---7h9------9---10---7h9------9---10---9*-----9----7-5-----|
B|-----000---0----0-------88---8----8-------77---7----7-----88---88---------|
       ...   .    .       ..   .    .       ..   .    .     ..   ..

B|--------------------------------------------------------------------------|
F#|-------------------------------------------------------------------------|
D|--------------------------------------------------------------------------|
A|--------------------------------------------------------------------------|
E|---------9---10---7h9------9---10---7h9------9---10---9*------9-----7-----|
B|-----000---0----0-------88---8----8-------77---7----7-----888---888-------|
       ...   .    .       ..   .    .       ..   .    .     ...   ...

harmonized verse: (played twice) Guitar II
B|---------------------------------------------------------------------------------|
F#|--------------------------------------------------------------------------------|
D|---------------------------------------------------------------------------------|
A|---------------------------------------------------------------------------------|
E|------------14----15----12h14----9---10---7h9------9---10---9*------9----7-5-----|
B|-----121212----12----12-------88---8----8-------77---7----7-----88---88----------|
        . . .     .     .       ..   .    .       ..   .    .     ..   ..

B|---------------------------------------------------------------------------------|
F#|--------------------------------------------------------------------------------|
D|---------------------------------------------------------------------------------|
A|---------------------------------------------------------------------------------|
E|------------14----15----12h14----9---10---7h9------9---10---9*------9-----7------|
B|-----121212----12----12-------88---8----8-------77---7----7-----888---888--------|
        . . .     .     .       ..   .    .       ..   .    .     ...   ..

chorus: (played twice) Both Guitar I & II
B|---------------------------------------------------------------------------------|
F#|--------------------------------------------------------------------------------|
D|---------------------------------------------------------------------------------|
A|-------------------------------------------------------9h10h9----9---------------|
E|--------10---9--10----10---9---10------12----10----12---------12---12-10-9/7-----|
B|-----77----7---7---88----8---8----1010----10----10-------------------------------|
       ..    .   .   ..    .   .     . .     .     .

B|---------------------------------------------------------------------------------|
F#|--------------------------------------------------------------------------------|
D|---------------------------------------------------------------------------------|
A|-------------------------------------------------------9h109----9h10h9h10h12-----|
E|--------10---9--10----10---9---10------12----10----12--------12------------------|
B|-----77----7---7---88----8---8----1010----10----10-------------------------------|
       ..    .   .   ..    .   .     . .     .     .

harmonized chorus: (played once) Guitar II
B|---------------------------------------------------------------------------------|
F#|--------------------------------------------------------------------------------|
D|------------------------------------------------------9h11h9----9----------------|
A|--------9---7---9----10---9---10------12----10----12---------12---12-10-9/7------|
E|---------------------------------------------------------------------------------|
B|-----77---7---7---88----8---8----1010----10----10--------------------------------|
       ..   .   .   ..    .   .     . .     .     .

B|---------------------------------------------------------------------------------|
F#|--------------------------------------------------------------------------------|
D|------------------------------------------------------9h11h9----9h119h11h12------|
A|--------9---7---9----10---9---10------12----10----12---------12------------------|
E|---------------------------------------------------------------------------------|
B|-----77---7---7---88----8---8----1010----10----10--------------------------------|
       ..   .   .   ..    .   .     . .     .     .

breakdown: (played four times) Both Guitar I & II
B|-----------------------------------------------------------|
F#|----------------------------------------------------------|
D|-----------------------------------------------------------|
A|-----------------------------------------------------------|
E|--------------------------------------------2--------------|
B|-----0-0-0-0-0-0-0-0--0-0-0-0-0-0-0-0--0h2h3--3--0-2h3-----|
       . . . . . . . .  . . . . . . . .

verse: (played four times) Both Guitar I & II
B|--------------------------------------------------------------------------|
F#|-------------------------------------------------------------------------|
D|--------------------------------------------------------------------------|
A|--------------------------------------------------------------------------|
E|---------9---10---7h9------9---10---7h9------9---10---9*-----9----7-5-----|
B|-----000---0----0-------88---8----8-------77---7----7-----88---88---------|
       ...   .    .       ..   .    .       ..   .    .     ..   ..

B|--------------------------------------------------------------------------|
F#|-------------------------------------------------------------------------|
D|--------------------------------------------------------------------------|
A|--------------------------------------------------------------------------|
E|---------9---10---7h9------9---10---7h9------9---10---9*------9-----7-----|
B|-----000---0----0-------88---8----8-------77---7----7-----888---888-------|
       ...   .    .       ..   .    .       ..   .    .     ...   ...

harmonized verse: (played twice) Guitar II
B|---------------------------------------------------------------------------------|
F#|--------------------------------------------------------------------------------|
D|---------------------------------------------------------------------------------|
A|---------------------------------------------------------------------------------|
E|------------14----15----12h14----9---10---7h9------9---10---9*------9----7-5-----|
B|-----121212----12----12-------88---8----8-------77---7----7-----88---88----------|
        . . .     .     .       ..   .    .       ..   .    .     ..   ..

B|---------------------------------------------------------------------------------|
F#|--------------------------------------------------------------------------------|
D|---------------------------------------------------------------------------------|
A|---------------------------------------------------------------------------------|
E|------------14----15----12h14----9---10---7h9------9---10---9*------9-----7------|
B|-----121212----12----12-------88---8----8-------77---7----7-----888---888--------|
        . . .     .     .       ..   .    .       ..   .    .     ...   ..

chorus: (played twice) Both Guitar I & II
B|---------------------------------------------------------------------------------|
F#|--------------------------------------------------------------------------------|
D|---------------------------------------------------------------------------------|
A|-------------------------------------------------------9h10h9----9---------------|
E|--------10---9--10----10---9---10------12----10----12---------12---12-10-9/7-----|
B|-----77----7---7---88----8---8----1010----10----10-------------------------------|
       ..    .   .   ..    .   .     . .     .     .

B|---------------------------------------------------------------------------------|
F#|--------------------------------------------------------------------------------|
D|---------------------------------------------------------------------------------|
A|-------------------------------------------------------9h109----9h10h9h10h12-----|
E|--------10---9--10----10---9---10------12----10----12--------12------------------|
B|-----77----7---7---88----8---8----1010----10----10-------------------------------|
       ..    .   .   ..    .   .     . .     .     .

harmonized chorus: (played once) Guitar II
B|---------------------------------------------------------------------------------|
F#|--------------------------------------------------------------------------------|
D|------------------------------------------------------9h11h9----9----------------|
A|--------9---7---9----10---9---10------12----10----12---------12---12-10-9/7------|
E|---------------------------------------------------------------------------------|
B|-----77---7---7---88----8---8----1010----10----10--------------------------------|
       ..   .   .   ..    .   .     . .     .     .

B|---------------------------------------------------------------------------------|
F#|--------------------------------------------------------------------------------|
D|------------------------------------------------------9h11h9----9h119h11h12------|
A|--------9---7---9----10---9---10------12----10----12---------12------------------|
E|---------------------------------------------------------------------------------|
B|-----77---7---7---88----8---8----1010----10----10--------------------------------|
       ..   .   .   ..    .   .     . .     .     .

breakdown: (played eight times) Both Guitar I & II
B|-----------------------------------------------------------|
F#|----------------------------------------------------------|
D|-----------------------------------------------------------|
A|-----------------------------------------------------------|
E|--------------------------------------------2--------------|
B|-----0-0-0-0-0-0-0-0--0-0-0-0-0-0-0-0--0h2h3--3--0-2h3-----|
       . . . . . . . .  . . . . . . . .

solo: I don't know the solo yet, like I said I'm not good at tabbing the solo  and
out the solo. If you guys figure out the solo and the rhythm just tab it under the solo section.

verse: (played four times) Both Guitar I & II
B|--------------------------------------------------------------------------|
F#|-------------------------------------------------------------------------|
D|--------------------------------------------------------------------------|
A|--------------------------------------------------------------------------|
E|---------9---10---7h9------9---10---7h9------9---10---9*-----9----7-5-----|
B|-----000---0----0-------88---8----8-------77---7----7-----88---88---------|
       ...   .    .       ..   .    .       ..   .    .     ..   ..

B|--------------------------------------------------------------------------|
F#|-------------------------------------------------------------------------|
D|--------------------------------------------------------------------------|
A|--------------------------------------------------------------------------|
E|---------9---10---7h9------9---10---7h9------9---10---9*------9-----7-----|
B|-----000---0----0-------88---8----8-------77---7----7-----888---888-------|
       ...   .    .       ..   .    .       ..   .    .     ...   ...

harmonized verse: (played twice) Guitar II
B|---------------------------------------------------------------------------------|
F#|--------------------------------------------------------------------------------|
D|---------------------------------------------------------------------------------|
A|---------------------------------------------------------------------------------|
E|------------14----15----12h14----9---10---7h9------9---10---9*------9----7-5-----|
B|-----121212----12----12-------88---8----8-------77---7----7-----88---88----------|
        . . .     .     .       ..   .    .       ..   .    .     ..   ..

B|---------------------------------------------------------------------------------|
F#|--------------------------------------------------------------------------------|
D|---------------------------------------------------------------------------------|
A|---------------------------------------------------------------------------------|
E|------------14----15----12h14----9---10---7h9------9---10---9*------9-----7------|
B|-----121212----12----12-------88---8----8-------77---7----7-----888---888--------|
        . . .     .     .       ..   .    .       ..   .    .     ...   ..

chorus: (played twice) Both Guitar I & II
B|---------------------------------------------------------------------------------|
F#|--------------------------------------------------------------------------------|
D|---------------------------------------------------------------------------------|
A|-------------------------------------------------------9h10h9----9---------------|
E|--------10---9--10----10---9---10------12----10----12---------12---12-10-9/7-----|
B|-----77----7---7---88----8---8----1010----10----10-------------------------------|
       ..    .   .   ..    .   .     . .     .     .

B|---------------------------------------------------------------------------------|
F#|--------------------------------------------------------------------------------|
D|---------------------------------------------------------------------------------|
A|-------------------------------------------------------9h109----9h10h9h10h12-----|
E|--------10---9--10----10---9---10------12----10----12--------12------------------|
B|-----77----7---7---88----8---8----1010----10----10-------------------------------|
       ..    .   .   ..    .   .     . .     .     .

harmonized chorus: (played once) Guitar II
B|---------------------------------------------------------------------------------|
F#|--------------------------------------------------------------------------------|
D|------------------------------------------------------9h11h9----9----------------|
A|--------9---7---9----10---9---10------12----10----12---------12---12-10-9/7------|
E|---------------------------------------------------------------------------------|
B|-----77---7---7---88----8---8----1010----10----10--------------------------------|
       ..   .   .   ..    .   .     . .     .     .

B|---------------------------------------------------------------------------------|
F#|--------------------------------------------------------------------------------|
D|------------------------------------------------------9h11h9----9h119h11h12------|
A|--------9---7---9----10---9---10------12----10----12---------12------------------|
E|---------------------------------------------------------------------------------|
B|-----77---7---7---88----8---8----1010----10----10--------------------------------|
       ..   .   .   ..    .   .     . .     .     .

outro: the ending is a bit weird, I can't really figure it out correctly, but I know you
have better ear and better phrasing them I am.
Добавлено: 22.08.2013
Другие материалы по этой песне:
  • Аккорды и текст

Страница создана 27.07.2012
http://primanota.ru/all-that-remains/behind-silence-and-solitude-chords.htm
Привет, Гость.
Предлагаем пройти революционный курс по гитаре.
Подарок от PrimaNota.Ru, забирай!