PrimaNota.ru - самый крупный в мире бесплатный архив песенных текстов, аккордов, табулатур и нот


All Shall Perish - Greyson - таба, видео

Регистрация Запомнить меня
Войти через:  Facebook Google Twitter Vk Yandex Mail.ru

All Shall Perish - Greyson - таба, видео

Печатать
Просмотров: 294
i have recently tabbed the backing guitar for this song and now i have figured out what 
can

b=bend
h=hammer on
p=pull off
/\=slide up/down
...=palm mute
~=let ring


youll have to figure out the rhythm its hell easy though
E|--------------------------------------------------------------------------|
B|--6/7\6/97-6-7-4~----7/9-7-11-99-11-7-9~-7-7/9767-6-7-4~------------------|
G|--------------------------------------------------------------------------|
D|--------------------------------------------------------------------------|
A|--------------------------------------------------------------------------|
E|--------------------------------------------------------------------------|

then there is the pick slide
E|--------------------------------------------------------------------------|
B|--------------------------------------------------------------------------|
G|--------------------------------------------------------------------------|
D|-----------------77--77------------77--77---4-7-5-44-2/4--4-7-5-4~--------|
A|--5~-5/77-7/99~----55--55-5/77-55~---55--5-5-------------5----------------|
E|--------------------------------------------------------------------------|


E|--------------------------|
B|--------------------------|
G|--------------------------|
D|---4-7-5-44-2/4--4-7-5-4--|
A|--5-------------5---------|
E|--------------------------|

ok this is the solo part. i most of the time just improvise off this scale but i also 
what i think most of it really is

E|------------------------|
B|------------------------|
G|-----------------4-5-7--|
D|-----------4-5-7--------|
A|-----4-5-7--------------|
E|--5-7-------------------|****follow the same patterns at frets 7 and 9****


(when it goes "b" i mean seriously bend it)
E|---------------------------------------|
B|---------------------------------------|
G|---b9-7h9p-------------------7h9p------|
D|----------9~----------4-5-7-9----9~--4~|
A|-----------------4-5-7-----------------|
E|--------------5-7----------------------|
                . .. . .. .

thats all i got sorry just follow the pattern i tabbed before
Добавлено: 07.07.2012
Другие материалы по этой песне:

Страница создана 23.02.2012
http://primanota.ru/all-shall-perish/greyson-chords.htm
Привет, Гость.
Предлагаем пройти революционный курс по гитаре.
Подарок от PrimaNota.Ru, забирай!