PrimaNota.ru - самый крупный в мире бесплатный архив песенных текстов, аккордов, табулатур и нот


All Shall Perish - Eradication - текст песни, таба, видео

Регистрация Запомнить меня
Войти через:  Facebook Google Twitter Vk Yandex Mail.ru

All Shall Perish - Eradication - текст песни, таба, видео

Печатать
Просмотров: 302
----------------------------------------------------------------------------
         Eradication solo - All shall perish
----------------------------------------------------------------------------
Tabbed by:  Steve the man!
Email:Allchavsrgay@hotmail.com

Tuning:B,F#,B,E,G#,C#

T - Tap
h - Hammer on
p - Pull off
\ - slide
                                                   
e|-------------10--------------------9---------|
B|----------10----10---------------9---9-------|
G|-------10----------10----------9-------9-----|
D|----12----------------12----11-----------11--|
A|-12----------------------11------------------|
E|---------------------------------------------|


e|-----------------------10--------------------9---------|
B|--------------------10----10---------------9---9-------|
G|------------------10---------10----------9-------9-----|
D|-12-14-15-11----12---------------12----11----------11-|
A|-------------12---------------------11-----------------|
E|--------------------------------------------------------|


                     T                              T
e|-------------10-13-17-13-10---------------------9-12-16---------|
B|----------10----------------10----------------9---------9-------|
G|-------10----------------------10-----------9-------------9-----|
D|----12----------------------------12-----11-----------------11--|
A|-12-----------------------------------11------------------------|
E|----------------------------------------------------------------|


                     T                              
e|-------------10-13-18-13-10--------------------------------------------|
B|----------10----------------10------------------------10---------------|
G|-------10----------------------10-------------9-10-12----12-10-9-------|
D|----12----------------------------12----10-12--------------------12-10-|
A|-12----------------------------------12--------------------------------|
E|-----------------------------------------------------------------------|


                                                 
                     T                              T
e|-------------10-13-17-13-10---------------------9-12-16---------|
B|----------10----------------10----------------9---------9-------|
G|-------10----------------------10-----------9-------------9-----|
D|----12----------------------------12-----11-----------------11--|
A|-12-----------------------------------11------------------------|
E|----------------------------------------------------------------|


                    T                             
e|------------10-13-17-13-10-----------18-17-15-17-15-13-15-13-12-13-12-10-|
B|---------10----------------10--------------------------------------------|
G|------10----------------------10-----------------------------------------|
D|---12----------------------------12--------------------------------------|
A|12-----------------------------------------------------------------------|
E|-------------------------------------------------------------------------|


e|-10b-9-10-10h12-12h13-12-13-17-17-18-18-20-20-18-17-18-17-15-17-15-13-15b|
B|-------------------------------------------------------------------------|
G|-------------------------------------------------------------------------|
D|-------------------------------------------------------------------------|
A|-------------------------------------------------------------------------|
E|-------------------------------------------------------------------------|


e|-13-12-12h13p10-10h12p9\13-12-10-8h10------------10h13-------------|
B|-------------------------------------------10h13-------------------|
G|--------------------------------------7h10-------------------------|
D|-------------------------------------------------------------------|
A|-------------------------------------------------------------------|
E|-------------------------------------------------------------------|




e|-22-20-18h17p18-15h17p15-13h15---20-18-17-18-17-15-17-15-13-12-----|
B|-------------------------------------------------------------------|
G|-------------------------------------------------------------------|
D|-------------------------------------------------------------------|
A|-------------------------------------------------------------------|
E|-------------------------------------------------------------------|

e|-20-18-17-18-17-15-17-15-13-15-13-12-20-18-17-18-17-15-17-15-13-15-13-12-|
B|-------------------------------------------------------------------------|
G|-------------------------------------------------------------------------|
D|-------------------------------------------------------------------------|
A|-------------------------------------------------------------------------|
E|-------------------------------------------------------------------------|

e|-20-18-17-18-17-15-17-15-13-15-13-12--10---------------------------|
B|-------------------------------------------------------------------|
G|-------------------------------------------------------------------|
D|-------------------------------------------------------------------|
A|-------------------------------------------------------------------|
E|-------------------------------------------------------------------|


Harmony guitar (played on last 2)
e|-24-22-20-22-20-18-20-18-17-18-17-15-24-22-20-22-20-18-20-18-17-18-17-15-|
B|-------------------------------------------------------------------------|
G|-------------------------------------------------------------------------|
D|-------------------------------------------------------------------------|
A|-------------------------------------------------------------------------|
E|-------------------------------------------------------------------------|
Добавлено: 26.03.2012
Другие материалы по этой песне:

Страница создана 26.03.2012
http://primanota.ru/all-shall-perish/eradication-chords.htm
Привет, Гость.
Предлагаем пройти революционный курс по гитаре.
Подарок от PrimaNota.Ru, забирай!