PrimaNota.ru - самый крупный в мире бесплатный архив песенных текстов, аккордов, табулатур и нот


All Shall Perish - Awaken The Dreamers - текст песни, таба, видео

Регистрация Запомнить меня
Войти через:  Facebook Google Twitter Vk Yandex Mail.ru

All Shall Perish - Awaken The Dreamers - текст песни, таба, видео

Печатать
Просмотров: 123
---------------------------------------------------------------
                             SONG NAME - Band Name
---------------------------------------------------------------
Tabbed by:
Email:

Tuning: Drop B

Intro 
Guitar 1
C#|----------------------------------------------------|
G#|----------------------------------------------------|
E |----------------------------------------------------|
B |----3~-------7~----5~----3~-------5~----2~----------|
F#|----5~-------8~----7~----5~-------7~----4~----------|
B |----------------------------------------------------|
Guitar 2
C#|----------------------|  |----------------------------|
G#|----------------------|  |----------------------------|
E |------------9-10-9-7--|x4|-------------9-9-10-9-7-----| x4
B |---88---7-0-----------|  |---88---7-0-----------------|
F#|------8---------------|  |------8---------------------|
B |----------------------|  |----------------------------|

---------------------------------------------------------------------------

guitar 2
C#|--------------------------------------------|
G#|--------------------------------------------|
E |---------7-9-10-9-7-9-7---7-----------------| x7
B |-----7-8----------------8---8-7-8-7---------|
F#|---8----------------------------------------|
B |--------------------------------------------|
Guitar 1
C#|-------------------------------------------------------|
G#|-------------------------------------------------------|
E |------------10-12-14-12-10-12-10----10-----------------| x7
B |------10-12----------------------12----12-10-12-10-----|
F#|---12--------------------------------------------------|
B |-------------------------------------------------------|

C#|--------------------------------------------|
G#|--------------------------------------------|
E |--------------------------------------------| x1
B |----------------------5-7-------------------|
F#|---7-8-10-8-7-5-7-5-8-----7-8-10-8-7--------|
B |--------------------------------------------|

---------------------------------------------------------------------------


C#|-------------------------------------------------------------|
G#|-------------------------------------------------------------|
E |------------------------------7-9-10-9-7-9-7---7-------------|
B |---7------7---------7-----7-8----------------8---8-7-8-7-----|
F#|---5------5---------5---8------------------------------------|
B |-----0-0-0--0-0-0-0---0--------------------------------------|


C#|--------------------------------------------------------------|
G#|--------------------------------------------------------------|
E |--------------------------------------------------------------|
B |---------------------------------------------5-7--------------|
F#|---8-------8---------8----7-8-10-8-7-5-7-5-8-----7-8-10-8-7---|
B |---8-8-8-8-8-8-8-8-8-8-8--------------------------------------|


C#|------------------------------------------------------------------------|
G#|------------------------------------------------------------------------|
E |---------------------------------10-12-14-12-10-12-10---10--------------|
B |---7--------7---------7-----10-12---------------------12--12-10-12-10---|
F#|---5--------5---------5---12--------------------------------------------|
B |-----0-0-0----0-0-0-0---0-----------------------------------------------|

C#|---------------------------------------------------------------|
G#|---------------------------------------------------------------|
E |---------------------------------------------------------------|
B |---------------------------------------------5-7---------------|
F#|---8-------8---------8----7-8-10-8-7-5-7-5-8-----7-8-10-8-7----|
B |---8-8-8-8-8-8-8-8-8-8-8---------------------------------------|

---------------------------------------------------------------------------
Guitar 1
C#|-----------------------------|    |--------------------------|
G#|-----------------------------|    |--------------------------|
E |-----------------------------| x13|-----------7-7-7----------|
B |-----------------------------|    |-----------------10-8-----|
F#|---8--0----0---0-0-8--0------|    |---0---0-0----------------|
B |---8--0----0---0-0-8--0------|    |---0---0-0----------------|
Guitar 2
C#|--------------------------------------------|
G#|--------------------------------------------|
E |--------------------------------------------| x4
B |----8-7---8-7---8-7---8-7----8-8-8-7-5------|
F#|--------5-----5-----5-----5-----------------|
B |--------------------------------------------|

---------------------------------------------------------------------------
No solo. i cant tab solos
---------------------------------------------------------------------------




************************************

| /   slide up
| \   slide down
| h   hammer-on
| p   pull-off
| ~   vibrato
| +   harmonic
| x   Mute note
| b   Bend
| pb  Pre-bend
| br  Bend release
| pbr Pre-bend release
| brb Bend release bend

************************************
Добавлено: 25.06.2012
Другие материалы по этой песне:

Страница создана 18.04.2012
http://primanota.ru/all-shall-perish/awaken-the-dreamers-chords.htm
Привет, Гость.
Предлагаем пройти революционный курс по гитаре.
Подарок от PrimaNota.Ru, забирай!