PrimaNota.ru - самый крупный в мире бесплатный архив песенных текстов, аккордов, табулатур и нот


All Shall Perish - From So Far Away - таба, видео

Регистрация Запомнить меня
Войти через:  Facebook Google Twitter Vk Yandex Mail.ru

All Shall Perish - From So Far Away - таба, видео

Печатать
Просмотров: 220
Уроки эстрадного вокала в Санкт-Петербурге
First Tab! :]  (It's Just the Rhythm, I'm still working on the lead!)
Tuning : B F# B E G# C#(From low to high)
www.myspace.com/listentothemisfits

|-----------------------------4-----------------------------------------|
|-----------------------------4-----------------------------------------|
|--------------------------4--4--4-4------------------------------------|
|6---6--6-6--6-6---7-7-----6-----6-6-6---2p1--------4-2---2-2-2-2-2-----|
|4---4--4-4--4-4---9-9-----------------------2-2p1--4-2---2-2-2-2-2-----|
|---------------------------------------------------4-2---2-2-2-2-2-----|


|--------4-------------------------|
|--------4-------------------------|
|--------4-------------------------|
|4-4--1----1-1-1-1-1----2-2--------|
|4-4--1----1-1-1-1-1----2-2--------|
|4-4--1----1-1-1-1-1----2-2--------|x3


|-------------------------|
|-------------------------|
|4------------------------|
|6--2---------------------|
|---2---------------------|
|---2---------------------|x3


|-------------------------|
|-------------------------|
|4------------------------|
|6--2--1------------------|
|---2--1------------------|
|---2--1------------------|

|-----------------------------4-----------------------------------------|
|-----------------------------4-----------------------------------------|
|--------------------------4--4--4-4------------------------------------|
|6---6--6-6--6-6---7-7-----6-----6-6-6---2p1--------4-2---2-2-2-2-2-----|
|4---4--4-4--4-4---9-9-----------------------2-2p1--4-2---2-2-2-2-2-----|
|---------------------------------------------------4-2---2-2-2-2-2-----|


|--------4-------------------------|
|--------4-------------------------|
|--------4-------------------------|
|4-4--1----1-1-1-1-1----2-2--------|
|4-4--1----1-1-1-1-1----2-2--------|
|4-4--1----1-1-1-1-1----2-2--------|


|-----------------------------------------------------------------------|
|-----------------------------------------------------------------------|
|-----------------------------------------------------------------------|
|6-6-6-6-6-6-6-6-6-6-6-6-6-6-6-6----6-6-6-6-6-6-6-6-6-6-6-6-6-6-6-6-----|
|4-4-4-4-4-4-4-4-4-4-4-4-4-4-4-4----6-6-6-6-6-6-6-6-6-6-6-6-6-6-6-6-----|
|-----------------------------------6-6-6-6-6-6-6-6-6-6-6-6-6-6-6-6-----|
Palm Muted
 
|-----------------------------------------------------------------------|
|-----------------------------------------------------------------------|
|-----------------------------------------------------------------------|
|2-2-2-2-2-2-2-2-2-2-2-2-2-2-2-2----1-1-1-1-1-1-1-1-1-1-1-1-1-1-1-1-----|
|2-2-2-2-2-2-2-2-2-2-2-2-2-2-2-2----1-1-1-1-1-1-1-1-1-1-1-1-1-1-1-1-----|
|2-2-2-2-2-2-2-2-2-2-2-2-2-2-2-2----1-1-1-1-1-1-1-1-1-1-1-1-1-1-1-1-----|
Palm Muted

|-----------------------------------------------------------------------|
|-----------------------------------------------------------------------|
|-----------------------------------------------------------------------|
|6-6-6-6-6-6-6-6-6-6-6-6-6-6-6-6----6-6-6-6-6-6-6-6-6-6-6-6-6-6-6-6-----|
|4-4-4-4-4-4-4-4-4-4-4-4-4-4-4-4----6-6-6-6-6-6-6-6-6-6-6-6-6-6-6-6-----|
|-----------------------------------6-6-6-6-6-6-6-6-6-6-6-6-6-6-6-6-----| 
(Every other two strokes is palm muted and some variation) 
 

|-----------------------------------------------------------------------|
|-----------------------------------------------------------------------|
|-----------------------------------------------------------------------|
|2-2-2-2-2-2-2-2-2-2-2-2-2-2-2-2----1-1-1-1-1-1-1-1-1-1-1-1-1-1-1-1-----|
|2-2-2-2-2-2-2-2-2-2-2-2-2-2-2-2----1-1-1-1-1-1-1-1-1-1-1-1-1-1-1-1-----|
|2-2-2-2-2-2-2-2-2-2-2-2-2-2-2-2----1-1-1-1-1-1-1-1-1-1-1-1-1-1-1-1-----| 
(Every other two strokes is palm muted and some variation) 

  

|-----------------------------4-----------------------------------------|
|-----------------------------4-----------------------------------------|
|--------------------------4--4--4-4------------------------------------|
|6---6--6-6--6-6---7-7-----6-----6-6-6---2p1--------4-2---2-2-2-2-2-----|
|4---4--4-4--4-4---9-9-----------------------2-2p1--4-2---2-2-2-2-2-----|
|---------------------------------------------------4-2---2-2-2-2-2-----|


|--------4-------------------------|
|--------4-------------------------|
|--------4-------------------------|
|4-4--1----1-1-1-1-1----2-2--------|
|4-4--1----1-1-1-1-1----2-2--------|
|4-4--1----1-1-1-1-1----2-2--------|

Добавлено: 10.05.2012
Другие материалы по этой песне:

Страница создана 24.04.2012
http://primanota.ru/all-shall-perish/from-so-far-away-chords.htm
Привет, Гость.
Предлагаем пройти революционный курс по гитаре.
Подарок от PrimaNota.Ru, забирай!