PrimaNota.ru - самый крупный в мире бесплатный архив песенных текстов, аккордов, табулатур и нот


All Shall Perish - Gagged Bound Shelved And Forgotten - текст песни, таба, видео

Регистрация Запомнить меня
Войти через:  Facebook Google Twitter Vk Yandex Mail.ru

All Shall Perish - Gagged Bound Shelved And Forgotten - текст песни, таба, видео

Печатать
Просмотров: 214
----------------------------------------------------------------------------
            GAGGED, BOUND, SHELVED AND FORGOTTEN - All Shall Perish
----------------------------------------------------------------------------

Tabbed by: Aaron Strachan
Email: aj_strachan@hotmail.co.uk

Tuning: Drop B

This tab is UNCOMPLEATED, i shall finish it soon. Hope you like what there is.


Intro
C#|---------------------|
G#|---------------------|
E |---------------------|
b |-0-0-0-0-00--000-000-|
F#|-0-0-0-0-00--000-000-|
B |-0-0-0-0-00--000-000-|
    x x x x xx  xxx xxx

Guitar 1 0:02
C#|---------------------------------------------------------------|
G#|---------------------------------------------------------------|x3
E |---------------------------------------------------------------|
b |------------------------------------------------2-3-5-3-2h3p2--|
F#|----5-4-5-4h5p4-1-4-1-0--1-0------5-4-5-4h5p4-1--------------3-|
B |-0---------------------------1-0-------------------------------|

Guiatar 2 0:10
C#|---------------------------------------------------------------|
G#|---------------------------------------------------------------|x2
E |---------------------------------------------------------------|
b |----3-2-3-2h3p2---3---------------3-2-3-2h3p2---5-7-8-7-5h7p5--|
F#|----------------4---5-4--5p4------------------4--------------8-|
B |-0--------------------------7-0--------------------------------|

Verse

C#|-------------------------------------------------------|
G#|-------------------------------------------------------|
E |-------------------------------------------------------|
b |-0--0--0000-00--0000-00--000-000-0--0--0000-00--0000-00|
F#|-0--0--0000-00--0000-00--000-000-0--0--0000-00--0000-00|
B |-0--0--0000-00--0000-00--000-000-0--0--0000-00--0000-00|
    x  x  xxxx xx  xxxx xx  xxx xxx x  x  xxxx xx  xxxx xx





| /  slide up
| \  slide down
| h  hammer-on
| p  pull-off
| ~  vibrato
| +  harmonic
| x  Muted note
Добавлено: 30.05.2012
Другие материалы по этой песне:

Страница создана 23.02.2012
http://primanota.ru/all-shall-perish/gagged-bound-shelved-and-forgotten-chords.htm
Привет, Гость.
Предлагаем пройти революционный курс по гитаре.
Подарок от PrimaNota.Ru, забирай!