PrimaNota.ru - самый крупный в мире бесплатный архив песенных текстов, аккордов, табулатур и нот


All Shall Perish - Better Living Through Catastrophe - текст песни, таба, видео

Регистрация Запомнить меня
Войти через:  Facebook Google Twitter Vk Yandex Mail.ru

All Shall Perish - Better Living Through Catastrophe - текст песни, таба, видео

Печатать
Просмотров: 209
Уроки эстрадного вокала в Санкт-Петербурге
Tabbed by:
Aaron

Tuning:
Drop B


e|---------------------------------------------------------------------------|
B|--------10-11-13--------8-10-11--------------------------------------------|
G|9-10-12----------7-9-10-----------------9-10-12--------7-9-10--------------|
D|--------------------------------8-10-12---------7-8-10---------------------|
A|---------------------------------------------------------------------------|
E|---------------------------------------------------------------------------|

e|------------------------------------------------------------------------------------------|
B|----------------------------------------8-10-11-10-8--------------------------------------|
G|10-9-7-10-9-7----9-7---------7~~-7-9-10--------------10-9-7-------------------------------|
D|--------------10-----10-8-10--------------------------------8-7---------------------------|
A|----------------------------------------------------------------10-8-7-8-10-8-7-8-10-8-7-5|
E|------------------------------------------------------------------------------------------|

e|---------------------------------------------------------------------------|
B|------------8h10h11 x6-----------------------------------------------------|
G|10h12h14 x6------------9h10h12 x6-10h12h14 x3-7h9h10 x3--------------------|
D|---------------------------------------------------------------------------|2x
A|---------------------------------------------------------------------------|
E|---------------------------------------------------------------------------|

e|-----------------------------------------------------------------------------------------|
B|-----------------------------------------------------------------------------------------|
G|9b-8~-10/12-10-9-10-9-12/14~-14b-12~-12-14-10-9-7-9-7---7--------------------------------|
D|------------------------------------------------------8---8-7-8-7----7-------------------|
A|------------------------------------------------------------------10---10-8-10-8-7-8-7---|
E|-----------------------------------------------------------------------------------------|

e|---------------------------------------------------------------------------|
B|---------------------------------------------------------------------------|
G|---------------------------------------------------------------------------|
D|---------------------------------------------------------------------------|
A|5-7-5-3-5~~----------------------------------------------------------------|
E|---------------------------------------------------------------------------|




here's the little breakdown riff right after the solo. play this part twice
e|-----------------------------------------------------------------------------------|
B|-----------------------------------------------------------------------------------|
G|-----------------------------------------------------------------------------------|
D|--------------------7---5---------------------7---3---------------------7---5------|
A|00-0-00-0000-00-0-0-8-0-7-00-0-00-0000-00-0-0-8-0-5-00-0-00-0000-00-0-0-8-0-7------|
E|00-0-00-0000-00-0-0---0---00-0-00-0000-00-0-0---0---00-0-00-0000-00-0-0---0--------|

e|---------------------------------------------------------------------------|
B|---------------------------------------------------------------------------|
G|---------------------------------------------------------------------------|
D|8-7-5-7-5---5--------------------------------------------------------------|
A|----------8---8-7-8-7-5----------------------------------------------------|
E|------------------------8-7-5-7-5-3-5-3-2-3-2-0----------------------------|


That's it!
Добавлено: 26.02.2012
Другие материалы по этой песне:

Страница создана 26.02.2012
http://primanota.ru/all-shall-perish/better-living-through-catastrophe-chords.htm
Привет, Гость.
Предлагаем пройти революционный курс по гитаре.
Подарок от PrimaNota.Ru, забирай!