PrimaNota.ru - самый крупный в мире бесплатный архив песенных текстов, аккордов, табулатур и нот


Alien Ant Farm - Wish(perfect) - таба, видео

Регистрация Запомнить меня
Войти через:  Facebook Google Twitter Vk Yandex Mail.ru

Alien Ant Farm - Wish(perfect) - таба, видео

Печатать
Просмотров: 122
Уроки эстрадного вокала в Санкт-Петербурге
Drop D Tuning. This is the Best Tab Site Period.


Intro
---------------------------------------
---------------------------------------
---------------------------------------
------4-----4--------------------------
----4-----4----5----3--6----2----------
--4-----4---------5-------4------------

Verse
-------------------------------------------
-------------------------------------------
-------------------------------------------
--4444444444444444--00000000--22222222-----
--4444444444444444--00000000--22222222-----
--4444444444444444--00000000--22222222-----

PreChorus
---------------------------------------
---------------------------------------
---------------------------------------
------4-----4--------------------------
----4-----4----5----3--6----2----------
--4-----4---------5-------4------------

Chorus
------------------------------------------------------
------------------------------------------------------
------------------------------------------------------
--4-4--0-0-0--7-7--5-5--4-4--2--4--5-5-5--7-7--5-5----
--4-4--0-0-0--7-7--5-5--4-4--2--4--5-5-5--7-7--5-5----
--4-4--0-0-0--7-7--5-5--4-4--2--4--5-5-5--7-7--5-5----

Part After Chorus
----------------------------------------
----------------------------------------
----------------------------------------
--6-1-1-1--5--1-1-1---------------------
--6-1-1-1--5--1-1-1---------------------
--6-1-1-1--5--1-1-1---------------------
Добавлено: 30.03.2012
Другие материалы по этой песне:
  • Аккорды и текст

Страница создана 30.03.2012
http://primanota.ru/alien-ant-farm/wishperfect-chords.htm
Привет, Гость.
Предлагаем пройти революционный курс по гитаре.
Подарок от PrimaNota.Ru, забирай!