PrimaNota.ru - самый крупный в мире бесплатный архив песенных текстов, аккордов, табулатур и нот


Alien Ant Farm - Courage - аккорды и текст, таба, бас-таба, видео

Регистрация Запомнить меня
Войти через:  Facebook Google Twitter Vk Yandex Mail.ru

Alien Ant Farm - Courage - аккорды и текст, таба, бас-таба, видео

Печатать
Просмотров: 235
Авторы: Dryden Mitchell, Terry Corso, Tye Zamora, Mike Cosgrove

Courage
Alien Ant Farm
		   INTRO
-----

  DRUM ROLL
1|----------|---|
2|----------|---|
3|----------|---|
4|----------|-4-|
5|----------|-4-|
6|----------|-2-|

MAIN RIFF
---------
                  (PLAY 2X)                                         (PLAY 5X)
1|-------------------------|-----------------------|-------------------------|
2|-------------------------|-----------------------|-------------------------|
3|-------------------------|-----------------------|-------------------------|
4|---------------3---------|---------------3-------|---------------3---------|
5|-4-4-0---------1---------|-4-4-0---------1-------|-4-4-0---------1---------|
6|-------2-0-2-3---3-2-0-2-|-------2-0-2-3---3-2-1-|-------2-0-2-3---3-2-0-2-|

LAST 4 BARS W/
  (LET RING THROUGH-OUT)
1|-----------|--------------|
2|---7---9---|--------------|
3|-----------|--------------|
4|-----------|-7-9--7-9--7--|
5|-----------|--------------|
6|-----------|--------------|

VERSE
-----
  (LET RING THROUGH-OUT)
1|-----|-----|-----|-----|-----|-----|-----|----------------|
2|-----|-----|-----|-----|-----|-----|-----|----------------|
3|--6--|--7--|--9--|--4--|--6--|--7--|--9--|--4/16-16-16-16-|
4|--X--|--X--|--X--|--X--|--X--|--X--|--X--|--X/-X--X--X--X-|
5|--4--|--5--|--7--|--2--|--4--|--5--|--7--|--2/14-14-14-14-|
6|-----|-----|-----|-----|-----|-----|-----|----------------|

PRE-CHORUS
----------
                  (PLAY 2X)
1|-------------------------|-----------------------|---------------------|
2|-------------------------|-----------------------|---------------------|
3|-------------------------|-----------------------|---------------------|
4|---------------3---------|---------------3-------|---------------3--2--|
5|-4-4-0---------1---------|-4-4-0---------1-------|-4-4-0---------1--2--|
6|-------2-0-2-3---3-2-0-2-|-------2-0-2-3---3-2-1-|-------2-0-2-3----0--|

CHORUS
------

1|-----|-------|----|-------|----|-------|----|-------|            |---|
2|-----|-------|----|-------|----|-------|----|-------|            |---|
3|-----|-------|-7--|-------|----|-------|-7--|-------|  REPEAT 2x |---|
4|--4--|--6--7-|-7--|--9--7-|-6--|--4--7-|-7--|--2--3-|     THEN   |-4-|
5|--4--|--6--7-|-5--|--9--7-|-6--|--4--7-|-5--|--2--3-|            |-4-|
6|--2--|--4--5-|-5--|--7--5-|-4--|--2--5-|-5--|--0--1-|            |-2-|

1|-------------------------|
2|-------------------------|
3|-------------------------| PLAY 2X
4|---------------3---------|
5|-4-4-0---------1---------|
6|-------2-0-2-3---3-2-0-2-|

VERSE
-----
  (LET RING THROUGH-OUT)
1|-----|-----|-----|-----|-----|-----|-----|----------------|
2|-----|-----|-----|-----|-----|-----|-----|----------------|
3|--6--|--7--|--9--|--4--|--6--|--7--|--9--|--4/16-16-16-16-|
4|--X--|--X--|--X--|--X--|--X--|--X--|--X--|--X/-X--X--X--X-|
5|--4--|--5--|--7--|--2--|--4--|--5--|--7--|--2/14-14-14-14-|
6|-----|-----|-----|-----|-----|-----|-----|----------------|

PRE-CHORUS
----------
                  (PLAY 2X)
1|-------------------------|-----------------------|---------------------|
2|-------------------------|-----------------------|---------------------|
3|-------------------------|-----------------------|---------------------|
4|---------------3---------|---------------3-------|---------------3--2--|
5|-4-4-0---------1---------|-4-4-0---------1-------|-4-4-0---------1--2--|
6|-------2-0-2-3---3-2-0-2-|-------2-0-2-3---3-2-1-|-------2-0-2-3----0--|

CHORUS
------

1|-----|-------|----|-------|----|-------|----|-------|
2|-----|-------|----|-------|----|-------|----|-------|
3|-----|-------|-7--|-------|----|-------|-7--|-------|  REPEAT 2x
4|--4--|--6--7-|-7--|--9--7-|-6--|--4--7-|-7--|--2--3-|
5|--4--|--6--7-|-5--|--9--7-|-6--|--4--7-|-5--|--2--3-|
6|--2--|--4--5-|-5--|--7--5-|-4--|--2--5-|-5--|--0--1-|

THEN:
PLAY 2X

1|---------|-------|---------|-------|
2|---------|-------|---------|-------|
3|---------|-------|-7-7-7-7-|-------|
4|-4-4-4-4-|--6--7-|-7-7-7-7-|--9--7-|
5|-4-4-4-4-|--6--7-|-5-5-5-5-|--9--7-|
6|-2-2-2-2-|--4--5-|-5-5-5-5-|--7--5-|

1|---------|-------|---------|-------|
2|---------|-------|---------|-------|
3|---------|-------|-7-7-7-7-|-------|
4|-6-6-6-6-|--4--7-|-7-7-7-7-|--2--3-|
5|-6-6-6-6-|--4--7-|-5-5-5-5-|--2--3-|
6|-4-4-4-4-|--2--5-|-5-5-5-5-|--0--1-|

BRIDGE
------
(PLAY THROUGH 3X)

1|-----------------|-----------------|-----------------|
2|-----------------|-----------------|-----------------|
3|-----------------|-----------------|-----7-7-7-7-----|
4|-4-4---------4-4-|-4-4---------4-4-|-6-6-X-X-X-X-6-6-|
5|-4-4-4-4-----4-4-|-4-4-4-4-----4-4-|-6-6-5-5-5-5-6-6-|
6|-2-2-----0-1-2-2-|-2-2-----0-1-2-2-|-4-4---------4-4-|

                                               (3RD TIME ONLY)
1|----------|------------------------|------------------------|
2|----------|------------------------|------------------------|
3|----------|------------------------|------------------------|
4|-7-7----7-|-9/11-11-11--9/11-11-11-|-9/11-11-11--9/11-11-11-|
5|-7-7----7-|-9/11-11-11--9/11-11-11-|-9/11-11-11--9/11-11-11-|
6|-5-5----5-|-7/9--9--9---7/9--9--9--|-7/9--9--9---7/9--9--9--|

WITH:
(1ST TIME ONLY)

6|-15-15-15-15-15-15-15-15-|

END WITH:

1|-------------------------|
2|-------------------------|
3|-------------------------|
4|-4---------------3-------|
5|-4-4-4-0---------1-------|
6|-2-------2-0-2-3---3-2-1-|

PRE-CHORUS
----------
                  (PLAY 3X)
1|-------------------------|---------------------|
2|-------------------------|---------------------|
3|-------------------------|---------------------|
4|---------------3---------|---------------3--2--|
5|-4-4-0---------1---------|-4-4-0---------1--2--|
6|-------2-0-2-3---3-2-0-2-|-------2-0-2-3----0--|

CHORUS
------

1|-----|-------|----|-------|----|-------|----|-------|
2|-----|-------|----|-------|----|-------|----|-------|
3|-----|-------|-7--|-------|----|-------|-7--|-------|  REPEAT 2x
4|--4--|--6--7-|-7--|--9--7-|-6--|--4--7-|-7--|--2--3-|
5|--4--|--6--7-|-5--|--9--7-|-6--|--4--7-|-5--|--2--3-|
6|--2--|--4--5-|-5--|--7--5-|-4--|--2--5-|-5--|--0--1-|

THEN:
PLAY 2X

1|---------|-------|---------|-------|
2|---------|-------|---------|-------|
3|---------|-------|-7-7-7-7-|-------|
4|-4-4-4-4-|--6--7-|-7-7-7-7-|--9--7-|
5|-4-4-4-4-|--6--7-|-5-5-5-5-|--9--7-|
6|-2-2-2-2-|--4--5-|-5-5-5-5-|--7--5-|

1|---------|-------|---------|-------|
2|---------|-------|---------|-------|
3|---------|-------|-7-7-7-7-|-------|
4|-6-6-6-6-|--4--7-|-7-7-7-7-|--2--3-|
5|-6-6-6-6-|--4--7-|-5-5-5-5-|--2--3-|
6|-4-4-4-4-|--2--5-|-5-5-5-5-|--0--1-|

WITH:

6|-15-15-15-15-15-15-15-15-|

END WITH:

1|---|
2|---|
3|---|
4|-4-|
5|-4-|
6|-2-|     
Добавлено: 01.07.2013
Другие материалы по этой песне:

Страница создана 06.03.2012
http://primanota.ru/alien-ant-farm/courage-chords.htm
Привет, Гость.
Предлагаем пройти революционный курс по гитаре.
Подарок от PrimaNota.Ru, забирай!