PrimaNota.ru - самый крупный в мире бесплатный архив песенных текстов, аккордов, табулатур и нот


Alien Ant Farm - Let Em Know - таба, видео

Регистрация Запомнить меня
Войти через:  Facebook Google Twitter Vk Yandex Mail.ru

Alien Ant Farm - Let Em Know - таба, видео

Печатать
Просмотров: 118
----------------------------------------------------------------------------
                             Alien Ant Farm - Let Em Know
----------------------------------------------------------------------------
Tabbed by: SuperFun_NHappy
E-mail: superfunhappyslide2@hotmail.com

Note: I dont know the chords for the bridge sorry. Also for the chorus, Terry DOESNT 
play chords for some parts(judging from a live show i saw on youtube) sorry D:



Tuning: Standard
      (0:00-0:25) Play nothing at all! Bass Plays

e|----------------------------------------------------------------------------|
B|----------------------------------------------------------------------------|
G|----------------------------------------------------------------------------|
D|----------------------------------------------------------------------------|
A|----------------------------------------------------------------------------|
E|----------------------------------------------------------------------------|
      (0:26-0:38)                          |-- They use a delay i think-------| (x2)
e|-----------------------------------------|----------------------------------|
B|----------------------------------------------------------------------------|
G|--5-5--7-7------9-9-10-10----------------14-------Let-It-Ring-Out-----------|
D|--x-x--x-x------x-x--x--x-----------------x(x8)-----------------------------|
A|--3-3--5-5------7-7--8--8----------------12---------------------------------|
E|----------------------------------------------------------------------------|
      (0:39-1:07)                                                        (x2)
e|-------------|------------------------------------------------------------|
B|-------------|------------------------------------------------------------|
G|----Pause----|------------------------------------------------------------|
D|-------------|--7---------5---------3---------12--------------------------|
A|-------------|--7(x16)----5(x16)----3(x16)----12(x16)---------------------|
E|-------------|--5---------3---------1---------10--------------------------|
      (1:08-1:13)                                       _ This Part is Most likely Wrong
e|-----------------------------------------------------|--------------------|
B|--------------------------------------------------------------------------|
G|-----------------------------------------------------19-------------------|
D|----CLAP-CLAP-CLAP-----STOP CLAPPING AND PLAY---------x(x8)---------------|
A|-----------------------------------------------------17-------------------|
E|--------------------------------------------------------------------------|
      (1:14-1:26) After Dryden says something like "the worlds gonna shyt on u" (at 
1:19) play muted notes (x32)
(aim around the bottom half of teh strings)
e|------x-x-x---------------------------------------------------------------|
B|------x-x-x------------------------------------------------5*-------------|
G|------x-x-x------------------------------------------------5*-------------|
D|------x-x-x---------------------------------------------------------------|
A|------x-x-x-etc-----------------------------------------------------------|
E|------x-x-x---------------------------------------------------------------|

     (1:27-1:39)                                                         (x2)
e|--------------------------------------------------------------------------|
B|--------------------------------------------------------------------------|
G|--5-5--7-7------9-9-10-10----------------14-------Let-It-Ring-Out---------|
D|--x-x--x-x------x-x--x--x-----------------x(x8)---------------------------|
A|--3-3--5-5------7-7--8--8----------------12-------------------------------|
E|--------------------------------------------------------------------------|

     (1:40-2:08)                                                         (x2)
e|-------------|------------------------------------------------------------|
B|-------------|------------------------------------------------------------|
G|----Pause----|------------------------------------------------------------|
D|-------------|--7---------5---------3---------12--------------------------|
A|-------------|--7(x16)----5(x16)----3(x16)----12(x16)---------------------|
E|-------------|--5---------3---------1---------10--------------------------|

Repat the Verse Riff for the first part of the Bridge but that is what i know so far... 
ill try and see if i can work it out ASAP

************************************

| /   slide up
| \   slide down
| h   hammer-on
| p   pull-off
| ~   vibrato
| *   harmonic
| x   Mute note
| b   Bend
| pb  Pre-bend
| br  Bend release
| pbr Pre-bend release
| brb Bend release bend

************************************
Добавлено: 08.08.2013
Другие материалы по этой песне:
  • Аккорды и текст

Страница создана 08.08.2013
http://primanota.ru/alien-ant-farm/let-em-know-chords.htm
Привет, Гость.
Предлагаем пройти революционный курс по гитаре.
Подарок от PrimaNota.Ru, забирай!