PrimaNota.ru - самый крупный в мире бесплатный архив песенных текстов, аккордов, табулатур и нот


Alien Ant Farm - Death Day - аккорды и текст, таба, бас-таба, видео

Регистрация Запомнить меня
Войти через:  Facebook Google Twitter Vk Yandex Mail.ru

Alien Ant Farm - Death Day - аккорды и текст, таба, бас-таба, видео

Печатать
Просмотров: 343
Уроки эстрадного вокала в Санкт-Петербурге
Death Day
Alien Ant Farm
		   Alien Ant Farm -Artist
Death Day" -Song


b - bend the string
p - pull off
/ - slide down
h - hammer on

Intro...Clean and standard tuning (Eadgbe):
e|----------------------------------------------------|
b|----------------------------------------------------|
g|--4--4--4-4--4-4--4--44--------------4--4-4/6--6-6--|
d|--4--4--4-4--4-4--4--44---4--4--4-4--4--4-4/4--6-6--|
a|--6--6--6-6--2-2--2--22---4--4--4-4--2--2-2/4--4-4--|
E|--------------------------2--2--2-2-----------------|
   The first chord (-644--) looks like its not suppose to be there,
but it is....you have to bar the forth fret with your index finger and
use your ring finger to hit the 6th fret, A string. Listen for the rythm
and play along with the song.

Pre Chorus:
e|------------------------------|
b|------------------------------|
g|-6////////////////////////////|
d|-6////////////////////////////|
a|-4----------------------------|
E|------------------------------|
This when Dryden sings "With a girl, I'd love to kiiiiiiiiiiill."

Chorus:
e|----------------------------------------
b|----------------------------------------
g|--------------------4-4-4---6-6-6-6-6-6-
d|-4------------------4-4-4---6-6-6-6-6-6-
a|-4------------------2-2-2---4-4-4-4-4-4-
E|-2--------------------------------------
     "Happy Death Day to you baby!"
Chorus Continiued:
e|------------------------------------------------------|
b|----------------------------------------5-5-5-5-5-5-5-|
g|---------------------------------4-4-4--4-4-4-4-4-4-4-|
d|-4-------------------------------4-4-4----------------|
a|-4-------------------------------2-2-2----------------|
E|-2----------------------------------------------------|
      "I know you're flying in the blue now."

The chorus is mostly percussion and bass.
After the chorus, return to intro rift, except the first chord
is more full:
e|-4---------------
b|-4---------------
g|-4---4-4--4--4-4- and so on.....
d|-4---4-4--4--4-4-
a|-6---6-6--2--2-2-
E|-4---------------

Solo.....This is the best I could do....This will have to do
until someone else can come up with a better one:
Use some wa-wa and slight dist.:
e|----------------------------------------------------------
b|----------------------------------------------------------
g|----------------------------------------------------------
d|--------------------8-7b----5h8p7--5-6------9-11--12-11-9-
a|--7b----8--7--9-7-6--------------(8)----------------------
E|----------------------------------------------------------

e|------------------------|
b|-----------12p11b-------|
g|--12-10-9---------------|
d|------------------------|
a|------------------------|
E|------------------------|

 ___________________________________________________________
| This was not made by me but what the hell its a good song |
|           And this site needs it hee hee =)               |
|___________________________________________________________|     
Добавлено: 10.07.2013
Другие материалы по этой песне:

Страница создана 22.02.2012
http://primanota.ru/alien-ant-farm/death-day-chords.htm
Привет, Гость.
Предлагаем пройти революционный курс по гитаре.
Подарок от PrimaNota.Ru, забирай!