PrimaNota.ru - самый крупный в мире бесплатный архив песенных текстов, аккордов, табулатур и нот


Airbourne - When The Girl Gets Hot - таба, видео

Регистрация Запомнить меня
Войти через:  Facebook Google Twitter Vk Yandex Mail.ru

Airbourne - When The Girl Gets Hot - таба, видео

Печатать
Просмотров: 144
----------------------------------------------------------------------------
                 WHEN THE GIRL GETS HOT - AIRBOURNE
----------------------------------------------------------------------------
Tabbed by Ryan Boone

this is only the intro

e|--------------------------------------------|
B|-9--------------------9---------------------|
G|---10-8-10--------------10-8-10-------------|
D|-----------8-10-----------------8-10--------|
A|----------------8--------------------8------|
E|--------------------------------------------|
Добавлено: 02.10.2013
Другие материалы по этой песне:
  • Аккорды и текст

Страница создана 03.06.2013
http://primanota.ru/airbourne/when-the-girl-gets-hot-chords.htm
Привет, Гость.
Предлагаем пройти революционный курс по гитаре.
Подарок от PrimaNota.Ru, забирай!