PrimaNota.ru - самый крупный в мире бесплатный архив песенных текстов, аккордов, табулатур и нот


AFI - Strength Through Wounding - текст песни, таба, видео

Регистрация Запомнить меня
Войти через:  Facebook Google Twitter Vk Yandex Mail.ru

AFI - Strength Through Wounding - текст песни, таба, видео

Печатать
Просмотров: 152
STRENGHT THROUGH WOUNDING - AFI 



* = harmonic 

fade-in: 
e|------------| 
B|------------| 
G|------------| 
D|------------| 
A|----9-------| 
E|----0-------| 

INTRO: 
those are just the chords 
e|----------------------------------------12*----------| 
B|-----------------------------------------------------| 
G|-------------9---------------7*----------------------| 
D|-7---7---2---9---7---6---2--------9*-----------------| 
A|-5---5---2---7---5---6---2---------------------------| 
E|-5---6---0-------5---3---0---------------------------| 

(cont.) 
e|-----------------------------------------------------| 
B|-----------------------------------------------------|
G|-12-12/14--14/13----9--9/10/9------------------------|
D|-x--x---x---x--x----x--x--x-x------------------------|
A|-10-10/12--12/11----7--7/-8/7------------------------|
E|-----------------------------------------------------|

riff 1: 
(through our bleeding, we are one...) 
e|----------| 
B|----------| 
G|----------| 
D|-2--------| 
A|-2--------| 
E|-0--------| 

"till the darkness comes again" 
e|------------| 
B|------------| 
G|------------| 
D|-8----6-----| 
A|-8----6-----| 
E|-6----3-----| 

outro: 
"we are one." 
e|------------------------| 
B|------------------------| 
G|-12--7--9----9--9-9-----| 
D|-x---x--x----9--9-9-----| 
A|-10--5--7----7--7-7-----| 
E|------------------------|
Добавлено: 29.03.2012
Другие материалы по этой песне:

Страница создана 29.03.2012
http://primanota.ru/afi/strength-through-wounding-chords.htm
Привет, Гость.
Предлагаем пройти революционный курс по гитаре.
Подарок от PrimaNota.Ru, забирай!