PrimaNota.ru - самый крупный в мире бесплатный архив песенных текстов, аккордов, табулатур и нот


AFI - Summer Shudder - текст песни, таба, бас-таба, видео

Регистрация Запомнить меня
Войти через:  Facebook Google Twitter Vk Yandex Mail.ru

AFI - Summer Shudder - текст песни, таба, бас-таба, видео

Печатать
Просмотров: 206
Авторы: David Marchand, Adam Carson, Hunter Burgan, Jade Puget

As recorded by AFI
(From the 2006 Album DECEMBERUNDERGROUND)

Transcribed by spidey255
        

Words by Davey Havok Music by Jade Puget, Hunter Bergan, Adam Carson
Arranged by AFI

Gtr I (D# G# C# F# A# D#) - 'Untitled'
Gtr II (D# G# C# F# A# D#) - 'Untitled'
Gtr III (D# G# C# F# A# D#) - 'Untitled'
Gtr IV (D# G# C# F# A# D#) - 'Untitled'
Gtr V (D# G# C# F# A# D#) - 'Untitled'

 Intro
  Q=120
  N.C.
 4/4
  Gtr III
   <
   W           +W            W            +W
|------------|------------|-10---------|-(10)----|
|------------|------------|------------|---------|
|-(7)--------|-(7)--------|-(7)--------|--(7)----|
|--9---------|-(9)--------|-(9)--------|--(9)----|
|------------|------------|------------|---------|
|------------|------------|------------|---------|


 Verse
  Q=170
  A5B5  D5     B5       A5B5A5D5B5       D/A                       A5
  Gtr I
  E E E E +Q   Q    +E  E E E E E +Q     H    Q  E E   +E  E E E E E +Q
|-----------------|--------------------|-------------|---------------------|
|-----------------|--------------------|-7----7--7-7-|-(7)-7-7-7-7---------|
|-------7-(7)-----|-----------7--------|-7----7--7-7-|-(7)-7-7-7-7---------|
|-7-9-9-7-(7)--9--|-(9)-7-9-7-7-9-(9)--|-7----7--7-7-|-(7)-7-7-7-7-7-(7)---|
|-7-9-9-5-(5)--9--|-(9)-7-9-7-5-9-(9)--|-5----5--5-5-|-(5)-5-5-5-5-7-(7)---|
|-5-7-7--------7--|-(7)-5-7-5---7-(7)--|-5----5--5-5-|-(5)-5-5-5-5-5-(5)---|


  A5B5  D5     B5        A5B5A5D5 B5   D/A                       A5
  E E E E +Q   E E   +E  E E E Q  Q    H    Q  E E   +E  E E E E E +Q
|------------------|-----------------|-------------|---------------------|
|------------------|-----------------|-7----7--7-7-|-(7)-7-7-7-7---------|
|-------7-(7)------|-----------7-----|-7----7--7-7-|-(7)-7-7-7-7---------|
|-7-9-9-7-(7)--9-9-|-(9)-7-9-7-7--9--|-7----7--7-7-|-(7)-7-7-7-7-7-(7)---|
|-7-9-9-5-(5)--9-9-|-(9)-7-9-7-5--9--|-5----5--5-5-|-(5)-5-5-5-5-7-(7)---|
|-5-7-7--------7-7-|-(7)-5-7-5----7--|-5----5--5-5-|-(5)-5-5-5-5-5-(5)---|


  A5B5  D5     B5            A5B5A5D5 B5   D/A                       A5
  E E E E +Q   E  E     +E   E E E Q  Q    H    Q  E E   +E  E E E E E +Q
|----------------<7>-|-(<7>)-------------|-------------|---------------------|
|----------------<7>-|-(<7>)-------------|-7----7--7-7-|-(7)-7-7-7-7---------|
|-------7-(7)--------|-------------7-----|-7----7--7-7-|-(7)-7-7-7-7---------|
|-7-9-9-7-(7)--9-(9)-|--(9)--7-9-7-7--9--|-7----7--7-7-|-(7)-7-7-7-7-7-(7)---|
|-7-9-9-5-(5)--9-(9)-|--(9)--7-9-7-5--9--|-5----5--5-5-|-(5)-5-5-5-5-7-(7)---|
|-5-7-7--------7-(7)-|--(7)--5-7-5----7--|-5----5--5-5-|-(5)-5-5-5-5-5-(5)---|


  A5B5  D5     B5        A5B5A5D5 B5
  E E E E +Q   E E   +E  E E E Q  Q
|------------------|-----------------|
|------------------|-----------------|
|-------7-(7)------|-----------7-----|
|-7-9-9-7-(7)--9-9-|-(9)-7-9-7-7--9--|
|-7-9-9-5-(5)--9-9-|-(9)-7-9-7-5--9--|
|-5-7-7--------7-7-|-(7)-5-7-5----7--|


  D5
  PM----------------------------------------|
  E E E E E E E E    E   E   E   E   E   E   Q
|-----------------|-------------------------------|
|-----------------|-------------------------------|
|-----------------|-------------------------------|
|-7-7-7-7-7-7-7-7-|-------------------------------|
|-5-5-5-5-5-5-5-5-|-<5>-<5>-<5>-<5>-<5>-<5>-<5>---|
|-----------------|-------------------------------|


 Chorus
  G                A
  E E E E E E Q    E E E E  E   E       Q
|-3-3-3-3-3------|-5-5-5-5--5-----------------|
|-3-3-3-3-3------|-5-5-5-5--5-----------------|
|-4-4-4-4-4------|-6-6-6-6--6-----------------|
|-5-5-5-5-5------|-7-7-7-7--7-----------------|
|-5-5-5-5-5------|-7-7-7-7--7-----------------|
|-3-3-3-3-3------|-5-5-5-5--5-----------------|
|
| Gtr II
| W                H        E  +E      +E   E
|----------------|----------------------------|
|----------------|----------------------------|
|----------------|---------12-(12)b14-(12)-12-|
|----------------|----------------------------|
|----------------|---------10-(10)b12-(10)-10-|
|----------------|----------------------------|


  Bm
   E E E E E E Q    E E E E E E Q
|--7-7-7-7-7------|-7-7-7-7-7-------|
|--7-7-7-7-7------|-7-7-7-7-7-------|
|--7-7-7-7-7------|-7-7-7-7-7-------|
|--9-9-9-9-9------|-9-9-9-9-9-------|
|--9-9-9-9-9------|-9-9-9-9-9-------|
|--7-7-7-7-7------|-7-7-7-7-7-------|
|
|  >
|  W                W
|-----------------|-----------------|
|-----------------|-----------------|
|-11--------------|-----------------|
|-----------------|-----------------|
|--9--------------|-----------------|
|-----------------|-----------------|


  G                A                D/A                 A5
  E E E E E E Q    E E E E E E Q    W          +H     E E +Q
|-3-3-3-3-3------|-5-5-5-5-5------|----------|------------------|
|-3-3-3-3-3------|-5-5-5-5-5------|-7--------|-(7)--------------|
|-4-4-4-4-4------|-6-6-6-6-6------|-7--------|-(7)--------------|
|-5-5-5-5-5------|-7-7-7-7-7------|-7--------|-(7)----7---------|
|-5-5-5-5-5------|-7-7-7-7-7------|-5--------|-(5)----5-7-(7)---|
|-3-3-3-3-3------|-5-5-5-5-5------|-5--------|-(5)----5-5-(5)---|


 Post Chorus
  N.C.
  PM---------------------------------|
  E E E E  E E E E    E E E E  E E E E
|------------------|-------------------|
|------------------|-------------------|
|---------11-------|-12-------11-------|
|-9-9-9-9----9-9-9-|----9-9-9----9-9-9-|
|------------------|-------------------|
|------------------|-------------------|


        PM--------------------------|
  E  E  E  E  E  E  E  E    E  E  E  E  E  E  E  E
|------------------------|--------------------------|
|------------------------|--------------------------|
|-7S11-------11----------|-14----------12-11--------|
|-9S12-12-12----12-12-12-|----12-12-12-------14-12--|
|------------------------|--------------------------|
|------------------------|--------------------------|


                                                          A/E
  PM------------------------------------------|
  E E E E E E E E    E E E E  E E E E   E E E E E E E E   E E E E H
|-----------------|-------------------|-----------------|--------------|
|-----------------|-------------------|-----------------|--------------|
|-----------------|-12-------11-------|-7-7-7-7-7-7-7-7-|-6-6-6-6------|
|-9-9-9-9-9-9-9-9-|----9-9-9----9-9-9-|-----------------|-7-7-7-7------|
|-----------------|-------------------|---------5-5-5-5-|-7-7-7-7------|
|-----------------|-------------------|-----------------|--------------|


 Verse
  N.C.
  Gtr IV
  PM-------------------------------------------------------------------|
  E E E E +Q   E +E    +E  E E E Q  Q    E E E E E E E E   E E E E E E +Q
|--------------------|-----------------|-----------------|-------------------|
|--------------------|-----------------|-----------------|-------------------|
|--------------------|-----------------|-----------------|-------------------|
|--------------------|-----------------|-----------------|-------------------|
|-------5-(5)--------|-----------5-----|-5-5-5-5-5-5-5-5-|-5-5-5-5-5---------|
|-5-7-7--------7-(7)-|-(7)-5-7-5----7--|-----------------|-----------5-(5)---|


                           A5B5A5D5 B5   D5/A                        A5
                           Gtr I
  PM-------------------|
  E E E E +Q   E +E    +E  E E E Q  Q    E E E E E E E E   E E E E E E +Q
|--------------------|-----------------|-----------------|-------------------|
|--------------------|-----------------|-----------------|-------------------|
|--------------------|-----------7-----|-7-7---7-7-7---7-|-7-7---7-7---------|
|--------------------|-----7-9-7-7--9--|-7-7---7-7-7---7-|-7-7---7-7-7-(7)---|
|-------5-(5)--------|-----7-9-7-5--9--|-5-5---5-5-5---5-|-5-5---5-5-7-(7)---|
|-5-7-7--------7-(7)-|-(7)-5-7-5----7--|-5-5---5-5-5---5-|-5-5---5-5-5-(5)---|
|
| Gtr II
| W                     W                E E E E E E E E   E E E E E E +Q
|--------------------|-----------------|-----------------|-------------------|
|--------------------|-----------------|-----------------|-------------------|
|--------------------|-----------------|-4-4---4-4-4---4-|-4-4---4-4-7-(7)---|
|--------------------|-----------------|-----------------|-------------------|
|--------------------|-----------------|-2-2---2-2-2---2-|-2-2---2-2-5-(5)---|
|--------------------|-----------------|-----------------|-------------------|


  A5B5  D5     B5        A5B5A5D5 B5
  E E E E +Q   E E   +E  E E E Q  Q
|------------------|-----------------|
|------------------|-----------------|
|-------7-(7)------|-----------7-----|
|-7-9-9-7-(7)--9-9-|-(9)-7-9-7-7--9--|
|-7-9-9-5-(5)--9-9-|-(9)-7-9-7-5--9--|
|-5-7-7--------7-7-|-(7)-5-7-5----7--|
|
| W                   W
|------------------|-----------------|
|------------------|-----------------|
|------------------|-----------------|
|------------------|-----------------|
|------------------|-----------------|
|------------------|-----------------|


  D/A                                    A5
   H           Q   E E   +E   E  E  E  E  E  +Q
|----------------------|---------------------------|
|--7-----------7---7-7-|-(7)--7--7--7--7-----------|
|--7-----------7---7-7-|-(7)--7--7--7--7-----------|
|--7-----------7---7-7-|-(7)--7--7--7--7--7--(7)---|
|--5-----------5---5-5-|-(5)--5--5--5--5--7--(7)---|
|--5-----------5---5-5-|-(5)--5--5--5--5--5--(5)---|
|
|  E  E  E  E  E E E E    E   E  E  E  E  E  +Q
|----------------------|---------------------------|
|----------------------|---------------------------|
|-11-11-11-11-11-9-9-9-|-12--12-12-12-12-11-(11)---|
|----------------------|---------------------------|
|--9--9--9--9--9-7-7-7-|-10--10-10-10-10--9--(9)---|
|----------------------|---------------------------|


  A5B5  D5     B5        A5B5A5D5 B5   D5                N.C.
                                                         Gtr III
                                                          <
                                       PM------------|
  E E E E +Q   E E   +E  E E E Q  Q    E E E E E E E E    W
|------------------|-----------------|-----------------|-------|
|------------------|-----------------|-----------------|-------|
|-------7-(7)------|-----------7-----|-----------------|-14----|
|-7-9-9-7-(7)--9-9-|-(9)-7-9-7-7--9--|-7-7-7-7-7-7-7-7-|-------|
|-7-9-9-5-(5)--9-9-|-(9)-7-9-7-5--9--|-5-5-5-5-5-5-5-5-|-------|
|-5-7-7--------7-7-|-(7)-5-7-5----7--|-----------------|-------|


 Chorus
  G                A
  Gtr I
  E E E E E E Q    E E E E  E   E       Q
|-3-3-3-3-3------|-5-5-5-5--5-----------------|
|-3-3-3-3-3------|-5-5-5-5--5-----------------|
|-4-4-4-4-4------|-6-6-6-6--6-----------------|
|-5-5-5-5-5------|-7-7-7-7--7-----------------|
|-5-5-5-5-5------|-7-7-7-7--7-----------------|
|-3-3-3-3-3------|-5-5-5-5--5-----------------|
|
| Gtr II
| W                H        E  +E      +E   E
|----------------|----------------------------|
|----------------|----------------------------|
|----------------|---------12-(12)b14-(12)-12-|
|----------------|----------------------------|
|----------------|---------10-(10)b12-(10)-10-|
|----------------|----------------------------|


  Bm                          A5
   E E E E E E Q    E E E E E E +Q
|--7-7-7-7-7------|-7-7-7-7-7---------|
|--7-7-7-7-7------|-7-7-7-7-7---------|
|--7-7-7-7-7------|-7-7-7-7-7---------|
|--9-9-9-9-9------|-9-9-9-9-9-7-(7)---|
|--9-9-9-9-9------|-9-9-9-9-9-7-(7)---|
|--7-7-7-7-7------|-7-7-7-7-7-5-(5)---|
|
|  >
|  W                W
|-----------------|-------------------|
|-----------------|-------------------|
|-11--------------|-------------------|
|-----------------|-------------------|
|--9--------------|-------------------|
|-----------------|-------------------|


  G                A                Bm                D/A
  E E E E E E Q    E E E E E E Q    E E E E E E E E   E E E E E E E E
|-3-3-3-3-3------|-5-5-5-5-5------|-7-7-7-7-7-7-7-7-|-5-5-5-5-5-5-5-5--|
|-3-3-3-3-3------|-5-5-5-5-5------|-7-7-7-7-7-7-7-7-|-7-7-7-7-7-7-7-7--|
|-4-4-4-4-4------|-6-6-6-6-6------|-7-7-7-7-7-7-7-7-|-7-7-7-7-7-7-7-7--|
|-5-5-5-5-5------|-7-7-7-7-7------|-9-9-9-9-9-9-9-9-|-7-7-7-7-7-7-7-7--|
|-5-5-5-5-5------|-7-7-7-7-7------|-9-9-9-9-9-9-9-9-|-5-5-5-5-5-5-5-5--|
|-3-3-3-3-3------|-5-5-5-5-5------|-7-7-7-7-7-7-7-7-|-5-5-5-5-5-5-5-5--|


  G                A                 Bm                          A5
  E E E E E E Q    E E E E E E Q      E E E E E E Q    E E E E E E +Q
|-3-3-3-3-3------|-5-5-5-5-5-------|--7-7-7-7-7------|-7-7-7-7-7---------|
|-3-3-3-3-3------|-5-5-5-5-5-------|--7-7-7-7-7------|-7-7-7-7-7---------|
|-4-4-4-4-4------|-6-6-6-6-6-------|--7-7-7-7-7------|-7-7-7-7-7---------|
|-5-5-5-5-5------|-7-7-7-7-7-------|--9-9-9-9-9------|-9-9-9-9-9-7-(7)---|
|-5-5-5-5-5------|-7-7-7-7-7-------|--9-9-9-9-9------|-9-9-9-9-9-7-(7)---|
|-3-3-3-3-3------|-5-5-5-5-5-------|--7-7-7-7-7------|-7-7-7-7-7-5-(5)---|
|
| Gtr II
|                                     >
| W                H       E E E E    W                W
|----------------|-----------------|-----------------|-------------------|
|----------------|-----------------|-----------------|-------------------|
|----------------|---------9-7-9-7-|-11--------------|-------------------|
|----------------|-----------------|-----------------|-------------------|
|----------------|---------7-5-7-5-|--9--------------|-------------------|
|----------------|-----------------|-----------------|-------------------|


  G                A                D/A                 A5
  E E E E E E Q    E E E E E E Q    W          +H     E E +Q
|-3-3-3-3-3------|-5-5-5-5-5------|----------|------------------|
|-3-3-3-3-3------|-5-5-5-5-5------|-7--------|-(7)--------------|
|-4-4-4-4-4------|-6-6-6-6-6------|-7--------|-(7)--------------|
|-5-5-5-5-5------|-7-7-7-7-7------|-7--------|-(7)----7---------|
|-5-5-5-5-5------|-7-7-7-7-7------|-5--------|-(5)----5-7-(7)---|
|-3-3-3-3-3------|-5-5-5-5-5------|-5--------|-(5)----5-5-(5)---|


 Post Chorus
  N.C.
  PM---------------------------------|
  E E E E  E E E E    E E E E  E E E E
|------------------|-------------------|
|------------------|-------------------|
|---------11-------|-12-------11-------|
|-9-9-9-9----9-9-9-|----9-9-9----9-9-9-|
|------------------|-------------------|
|------------------|-------------------|


        PM--------------------------|
  E  E  E  E  E  E  E  E    E  E  E  E  E  E  E  E
|------------------------|--------------------------|
|------------------------|--------------------------|
|-7S11-------11----------|-14----------12-11--------|
|-9S12-12-12----12-12-12-|----12-12-12-------14-12--|
|------------------------|--------------------------|
|------------------------|--------------------------|


                                                          A/E
  PM------------------------------------------|
  E E E E E E E E    E E E E  E E E E   E E E E E E E E   E E E E H
|-----------------|-------------------|-----------------|--------------|
|-----------------|-------------------|-----------------|--------------|
|-----------------|-12-------11-------|-7-7-7-7-7-7-7-7-|-6-6-6-6------|
|-9-9-9-9-9-9-9-9-|----9-9-9----9-9-9-|-----------------|-7-7-7-7------|
|-----------------|-------------------|---------5-5-5-5-|-7-7-7-7------|
|-----------------|-------------------|-----------------|--------------|


   Bridge
    D5/A                        A5
    E E E E E E Q     H       E E +Q
||------------------|-------------------|
||o-----------------|-------------------|
||--7-7-7-7-7-------|-------------------|
||--7-7-7-7-7-------|---------x-7-(7)---|
||o-5-5-5-5-5-------|---------x-7-(7)---|
||--5-5-5-5-5-------|-----------5-(5)---|
|
|   Gtr II
|   H       E E E E   E E E E E E  E  E
||------------------|-------------------|
||o-----------------|-------------------|
||----------7-7-7-7-|-7-7-7-7-7-7--7--7-|
||------------------|-------------------|
||o---------5-5-5-5-|-5-5-5-5-5-5--5--5-|
||------------------|-------------------|


  Bm                               A5
  E E E E E E Q      H           E E +Q
|-----------------|------------------------|
|-----------------|------------------------|
|-7-7-7-7-7-------|------------------------|
|-9-9-9-9-9-------|----------------7-(7)---|
|-9-9-9-9-9-------|--------------x-7-(7)---|
|-7-7-7-7-7-------|--------------x-5-(5)---|
|
| E E E E E E E E    E  E  E  E  E E  E  E
|-----------------|------------------------|
|-----------------|------------------------|
|-7-7-7-7s9-9-9-9-|-11-11-11-11-11-9--9--9-|
|-----------------|------------------------|
|-5-5-5-5s7-7-7-7-|--9--9--9--9--9-7--7--7-|
|-----------------|------------------------|


  G                         A
   E  E  E  E  Q     E  E    E  E  E  E  Q     E  E
|--3--3--3--3--3-----3--3-|--5--5--5--5--5-----5--5-|
|--3--3--3--3--3-----3--3-|--5--5--5--5--5-----5--5-|
|--4--4--4--4--4-----4--4-|--6--6--6--6--6-----6--6-|
|--5--5--5--5--5-----5--5-|--7--7--7--7--7-----7--7-|
|--5--5--5--5--5-----5--5-|--7--7--7--7--7-----7--7-|
|--3--3--3--3--3-----3--3-|--5--5--5--5--5-----5--5-|
|
|  E  E  E  E  E  E  E  E    E  E  E  E  E  E  E  E
|-------------------------|-------------------------|
|-------------10-10-------|-------------10-10-------|
|-11-11-------------------|-11-11-------------------|
|-------12-12-------12-12-|-------12-12-------12-12-|
|-------------------------|-------------------------|
|-------------------------|-------------------------|


  Bm                   G
  E E E E Q     E  E    E  E  E  E  Q     E  E
|-7-7-7-7-7-----7--7-|--3--3--3--3--3-----3--3---||
|-7-7-7-7-7-----7--7-|--3--3--3--3--3-----3--3--o||
|-7-7-7-7-7-----7--7-|--4--4--4--4--4-----4--4---||
|-9-9-9-9-9-----9--9-|--5--5--5--5--5-----5--5---||
|-9-9-9-9-9-----9--9-|--5--5--5--5--5-----5--5--o||
|-7-7-7-7-7-----7--7-|--3--3--3--3--3-----3--3---||
|
| E E E E E  E  E  E    E  E  E  E  E  E  E  E
|-9-9-9-9-9-10-10-10-|---------------------------||
|--------------------|-10-10-10-10-10-10-10-10--o||
|--------------------|---------------------------||
|--------------------|---------------------------||
|--------------------|--------------------------o||
|--------------------|---------------------------||


  N.C.
   W           +H      H       W           +H      H
|-14--------|-(14)----15----|-----------|---------------|
|-----------|---------------|-17--------|-(17)----14----|
|-----------|---------------|-----------|---------------|
|-----------|---------------|-----------|---------------|
|-----------|---------------|-----------|---------------|
|-----------|---------------|-----------|---------------|


   W           +W             W            +W
|-----------|-------------|--17---------|-(17)----|
|-15--------|-(15)--------|-(15)--------|-(15)----|
|-----------|-------------|-------------|---------|
|-----------|-------------|-------------|---------|
|-----------|-------------|-------------|---------|
|-----------|-------------|-------------|---------|


 Out-Chorus
  (G)               (A)                 (Bm)                       (A)
  Gtr V
  E E E E E E E E   a E E E E E E E E    E E E E E E E E   E E E E E E E E
|---------3-------|-------------------|----------------7-|-----------------|
|---3-------3-----|-----------5-------|----------7-------|-7-------5-------|
|-----4---------4-|-----6-----------6-|----7-------7-----|---7-------6---6-|
|-5-----5-----5---|-5s7---7-----7-----|-/9---9-------9---|-----9-------7---|
|-----------------|---------7-----7---|--------9---------|-------9---------|
|-----------------|-------------------|------------------|-----------------|


  G5                D/F#              Bm/F#
  E E E E E E E E   E E E E E E E E    W          +W
|-----------------|-----------------|-^2--------|-(2)----|
|-----------------|-----------------|-^3--------|-(3)----|
|-----------------|-----------------|-^4--------|-(4)----|
|-----------------|-----------------|-^4--------|-(4)----|
|-5-5-5-5-5-5-5-0-|-5-5-5-5-5-5-5-5-|-^2--------|-(2)----|
|-3-3-3-3-3-3-3-0-|-2-2-2-2-2-2-2-2-|-^2--------|-(2)----|


  G                A
  Gtr I
  E E E E E E Q    E E E E  E   E       Q
|-3-3-3-3-3------|-5-5-5-5--5-----------------|
|-3-3-3-3-3------|-5-5-5-5--5-----------------|
|-4-4-4-4-4------|-6-6-6-6--6-----------------|
|-5-5-5-5-5------|-7-7-7-7--7-----------------|
|-5-5-5-5-5------|-7-7-7-7--7-----------------|
|-3-3-3-3-3------|-5-5-5-5--5-----------------|
|
| Gtr II
| W                H        E  +E      +E   E
|----------------|----------------------------|
|----------------|----------------------------|
|----------------|---------12-(12)b14-(12)-12-|
|----------------|----------------------------|
|----------------|---------10-(10)b12-(10)-10-|
|----------------|----------------------------|


  Bm                          A5
   E E E E E E Q    E E E E E E +Q
|--7-7-7-7-7------|-7-7-7-7-7---------|
|--7-7-7-7-7------|-7-7-7-7-7---------|
|--7-7-7-7-7------|-7-7-7-7-7---------|
|--9-9-9-9-9------|-9-9-9-9-9-7-(7)---|
|--9-9-9-9-9------|-9-9-9-9-9-7-(7)---|
|--7-7-7-7-7------|-7-7-7-7-7-5-(5)---|
|
|  >
|  W                W
|-----------------|-------------------|
|-----------------|-------------------|
|-11--------------|-------------------|
|-----------------|-------------------|
|--9--------------|-------------------|
|-----------------|-------------------|


  G                A                Bm                D/A
  E E E E E E Q    E E E E E E Q    E E E E E E E E   E E E E E E E E
|-3-3-3-3-3------|-5-5-5-5-5------|-7-7-7-7-7-7-7-7-|-5-5-5-5-5-5-5-5--|
|-3-3-3-3-3------|-5-5-5-5-5------|-7-7-7-7-7-7-7-7-|-7-7-7-7-7-7-7-7--|
|-4-4-4-4-4------|-6-6-6-6-6------|-7-7-7-7-7-7-7-7-|-7-7-7-7-7-7-7-7--|
|-5-5-5-5-5------|-7-7-7-7-7------|-9-9-9-9-9-9-9-9-|-7-7-7-7-7-7-7-7--|
|-5-5-5-5-5------|-7-7-7-7-7------|-9-9-9-9-9-9-9-9-|-5-5-5-5-5-5-5-5--|
|-3-3-3-3-3------|-5-5-5-5-5------|-7-7-7-7-7-7-7-7-|-5-5-5-5-5-5-5-5--|


  G                A                 Bm                          A5
  E E E E E E Q    E E E E E E Q      E E E E E E Q    E E E E E E +Q
|-3-3-3-3-3------|-5-5-5-5-5-------|--7-7-7-7-7------|-7-7-7-7-7---------|
|-3-3-3-3-3------|-5-5-5-5-5-------|--7-7-7-7-7------|-7-7-7-7-7---------|
|-4-4-4-4-4------|-6-6-6-6-6-------|--7-7-7-7-7------|-7-7-7-7-7---------|
|-5-5-5-5-5------|-7-7-7-7-7-------|--9-9-9-9-9------|-9-9-9-9-9-7-(7)---|
|-5-5-5-5-5------|-7-7-7-7-7-------|--9-9-9-9-9------|-9-9-9-9-9-7-(7)---|
|-3-3-3-3-3------|-5-5-5-5-5-------|--7-7-7-7-7------|-7-7-7-7-7-5-(5)---|
|
| Gtr II
|                                     >
| W                H       E E E E    W                W
|----------------|-----------------|-----------------|-------------------|
|----------------|-----------------|-----------------|-------------------|
|----------------|---------9-7-9-7-|-11--------------|-------------------|
|----------------|-----------------|-----------------|-------------------|
|----------------|---------7-5-7-5-|--9--------------|-------------------|
|----------------|-----------------|-----------------|-------------------|


  G                A                D/A                 A5
  E E E E E E Q    E E E E E E Q    W          +H     E E +Q
|-3-3-3-3-3------|-5-5-5-5-5------|----------|------------------|
|-3-3-3-3-3------|-5-5-5-5-5------|-7--------|-(7)--------------|
|-4-4-4-4-4------|-6-6-6-6-6------|-7--------|-(7)--------------|
|-5-5-5-5-5------|-7-7-7-7-7------|-7--------|-(7)----7---------|
|-5-5-5-5-5------|-7-7-7-7-7------|-5--------|-(5)----5-7-(7)---|
|-3-3-3-3-3------|-5-5-5-5-5------|-5--------|-(5)----5-5-(5)---|


  N.C.
  Gtr III
   >
   W           +W            +W            +W
|-19--------|-(19)--------|-(19)--------|-(19)----*|
|-15--------|-(15)--------|-(15)--------|-(15)----*|
|-----------|-------------|-------------|---------*|
|-----------|-------------|-------------|---------*|
|-----------|-------------|-------------|---------*|
|-----------|-------------|-------------|---------*|


Добавлено: 25.07.2012
Другие материалы по этой песне:

Страница создана 03.03.2012
http://primanota.ru/afi/summer-shudder-chords.htm
Привет, Гость.
Предлагаем пройти революционный курс по гитаре.
Подарок от PrimaNota.Ru, забирай!