PrimaNota.ru - самый крупный в мире бесплатный архив песенных текстов, аккордов, табулатур и нот


AFI - Silver And Cold - аккорды и текст, таба, бас-таба, видео

Регистрация Запомнить меня
Войти через:  Facebook Google Twitter Vk Yandex Mail.ru

AFI - Silver And Cold - аккорды и текст, таба, бас-таба, видео

Печатать
Просмотров: 546
Авторы: David Marchand, Adam Carson, Hunter Burgan, Jade Puget

Silver And Cold
AFI
Intro:(Distortion)
[Eb--------------------------------------------------------
Bb--------------------------------------------------------
Gb--------8-8-8--------6-6-6--------4-4-4--------6-6-6----
Db--9-9-9-9-9-9--7-7-7-7-7-7--5-5-5-5-5-5--7-7-7-7-7-7----
Ab--9-9-9-9-9-9--7-7-7-7-7-7--5-5-5-5-5-5--7-7-7-7-7-7----
Eb--7-7-7-7-7-7--5-5-5-5-5-5--3-3-3-3-3-3--5-5-5-5-5-5----

-------------------------------------------------
-------------------------------------------------
--4-4-4-4-4-4---6-6-6-6-6-6---7-7-7-7-7-7--------
--x-x-x-x-x-x---x-x-x-x-x-x---x-x-x-x-x-x--------
--2-2-2-2-2-2---4-4-4-4-4-4---5-5-5-5-5-5---7----
--------------------------------------------O----]

First verse:(Clean)
[--------------------------------------------------------------
-------------------------------------------------------5------
---------------------------------------------------------4----
----4---------------------------------------------------------
--2---2----5------7------9------9------7------5---------------
---------3---3--5---5--7---7--7---7--5---5--3---3--O----------]

Пoтoм тoлькo Bass нo в кoнцe игpaитe этo...(Distortion)
[-------------------------------------------------
---------------------------5---------------------
-----------------------------4-------------------
----------------------------------2-2-2-2-2-2----
----9------7------5---------------2-2-2-2-2-2----
--7---7--5---5--3---3--O----------O-O-O-O-O-O----]

Chorus:(Distortion)
[------------------------------------------------------------------------------------------------------------
------------------------------------------------------------------------------------------------------------
--5-5-5-5-5-5---------------7-7-7-7-7-7--9-9-9-9-9-9--9-9-9-9-9-9--5-5-5-5-5-5--7-7-7-7-7-7--4-4-4-4-4-4----
--5-5-5-5-5-5--5-5-5-5-5-5--7-7-7-7-7-7--9-9-9-9-9-9--9-9-9-9-9-9--5-5-5-5-5-5--7-7-7-7-7-7--4-4-4-4-4-4----
--3-3-3-3-3-3--5-5-5-5-5-5--5-5-5-5-5-5--7-7-7-7-7-7--7-7-7-7-7-7--3-3-3-3-3-3--5-5-5-5-5-5--2-2-2-2-2-2----
---------------3-3-3-3-3-3----------------------------------------------------------------------------------

------------------------------------------------------------------------------------------------------------
------------------------------------------------------------------------------------------------------------
--5-5-5-5-5-5---------------7-7-7-7-7-7--9-9-9-9-9-9--9-9-9-9-9-9--7-7-7-7-7-7--5-5-5-5-5-5--7-7-7-7-7-7----
--5-5-5-5-5-5--5-5-5-5-5-5--7-7-7-7-7-7--9-9-9-9-9-9--9-9-9-9-9-9--7-7-7-7-7-7--5-5-5-5-5-5--7-7-7-7-7-7----
--3-3-3-3-3-3--5-5-5-5-5-5--5-5-5-5-5-5--7-7-7-7-7-7--7-7-7-7-7-7--5-5-5-5-5-5--3-3-3-3-3-3--5-5-5-5-5-5----
---------------3-3-3-3-3-3----------------------------------------------------------------------------------]

Verse Intro:(clean)
[--------------------------------------------------------------
-------------------------------------------------------5------
---------------------------------------------------------4----
----4---------------------------------------------------------
--2---2----5------7------9------9------7------5---------------
---------3---3--5---5--7---7--7---7--5---5--3---3--O----------

-------------------------------------------------------------
-----------------------------------------------------5-------
-----------------------------------------------------5-------
----4------------------------------------------------5-------
--2---2----5------7------9------9------7------5--------------
---------3---3--5---5--7---7--7---7--5---5--3---3------------]

Verse:(Distorted)
[------------------------------------------------------------
------------------------------------------------------------
--4-4-4-----------------------------------------------------
--4-4-4--5-5-5--7-7-7--9-9-9--9-9-9--7-7-7--5-5-5--2-2-2----
--2-2-2--5-5-5--7-7-7--9-9-9--9-9-9--7-7-7--5-5-5--2-2-2----
---------3-3-3--5-5-5--7-7-7--7-7-7--5-5-5--3-3-3--O-O-O----]
pm..........................................................

[---------------------------------------------------------------------------
---------------------------------------------------------------------------
--4-4-4-----------------------------------------------------7-7-7/9-9-9----
--4-4-4--5-5-5--7-7-7--9-9-9-------------------------2-2-2--x-x-x-x-x-x----
--2-2-2--5-5-5--7-7-7--9-9-9----9------7------5------2-2-2--5-5-5/7-7-7----
---------3-3-3--5-5-5--7-7-7--7---7--5---5--3---3----O-O-O-----------------]
pm..........................                pm...

[--------------------------------------------------------------------------------------
--------------------------------------------------------------------------------------
--4-----------------------4--------------------------------------------7-7-7/9-9-9----
--4--5--7--9--9--7--5--2--4--5--7--9----------------------------2-2-2--x-x-x-x-x-x----
--2--5--7--9--9--7--5--2--2--5--7--9-------9------7------5------2-2-2--5-5-5/7-7-7----
-----3--5--7--7--5--3--O-----3--5--7-----7---7--5---5--3---3----O-O-O-----------------]

Chorus:(Distortion)
[------------------------------------------------------------------------------------------------------------
------------------------------------------------------------------------------------------------------------
--5-5-5-5-5-5---------------7-7-7-7-7-7--9-9-9-9-9-9--9-9-9-9-9-9--5-5-5-5-5-5--7-7-7-7-7-7--4-4-4-4-4-4----
--5-5-5-5-5-5--5-5-5-5-5-5--7-7-7-7-7-7--9-9-9-9-9-9--9-9-9-9-9-9--5-5-5-5-5-5--7-7-7-7-7-7--4-4-4-4-4-4----
--3-3-3-3-3-3--5-5-5-5-5-5--5-5-5-5-5-5--7-7-7-7-7-7--7-7-7-7-7-7--3-3-3-3-3-3--5-5-5-5-5-5--2-2-2-2-2-2----
---------------3-3-3-3-3-3----------------------------------------------------------------------------------

------------------------------------------------------------------------------------------------------------
------------------------------------------------------------------------------------------------------------
--5-5-5-5-5-5---------------7-7-7-7-7-7--9-9-9-9-9-9--9-9-9-9-9-9--7-7-7-7-7-7--5-5-5-5-5-5--7-7-7-7-7-7----
--5-5-5-5-5-5--5-5-5-5-5-5--7-7-7-7-7-7--9-9-9-9-9-9--9-9-9-9-9-9--7-7-7-7-7-7--5-5-5-5-5-5--7-7-7-7-7-7----
--3-3-3-3-3-3--5-5-5-5-5-5--5-5-5-5-5-5--7-7-7-7-7-7--7-7-7-7-7-7--5-5-5-5-5-5--3-3-3-3-3-3--5-5-5-5-5-5----
---------------3-3-3-3-3-3----------------------------------------------------------------------------------]

Bridge:(Clean)
[-----------------------------------------------------
-----------------------------------------------------
------------O---------------------------------O------
------Oh4-----4---------------4---------Oh4-----4----
--2-2-----2---------2-2--2--2-------2-2-----2--------
-----------------------------------------------------

-----------------------------------------------------------------
----------------------------------------------------------5------
------------------------------------------------------------4----
-------4---------------------------------------------------------
2-2--2---2----5------7------9------9------7------5---------------
------------3---3--5---5--7---7--7---7--5---5--3---3--O----------

-------------
-------------
-------------
-2-2-2-2-2-2-
-2-2-2-2-2-2-
-O-O-O-O-O-O-]

Chorus:(Distortion)
[------------------------------------------------------------------------------------------------------------
------------------------------------------------------------------------------------------------------------
--5-5-5-5-5-5---------------7-7-7-7-7-7--9-9-9-9-9-9--9-9-9-9-9-9--5-5-5-5-5-5--7-7-7-7-7-7--4-4-4-4-4-4----
--5-5-5-5-5-5--5-5-5-5-5-5--7-7-7-7-7-7--9-9-9-9-9-9--9-9-9-9-9-9--5-5-5-5-5-5--7-7-7-7-7-7--4-4-4-4-4-4----
--3-3-3-3-3-3--5-5-5-5-5-5--5-5-5-5-5-5--7-7-7-7-7-7--7-7-7-7-7-7--3-3-3-3-3-3--5-5-5-5-5-5--2-2-2-2-2-2----
---------------3-3-3-3-3-3----------------------------------------------------------------------------------

------------------------------------------------------------------------------------------------------------
------------------------------------------------------------------------------------------------------------
--5-5-5-5-5-5---------------7-7-7-7-7-7--9-9-9-9-9-9--9-9-9-9-9-9--7-7-7-7-7-7--5-5-5-5-5-5--7-7-7-7-7-7----
--5-5-5-5-5-5--5-5-5-5-5-5--7-7-7-7-7-7--9-9-9-9-9-9--9-9-9-9-9-9--7-7-7-7-7-7--5-5-5-5-5-5--7-7-7-7-7-7----
--3-3-3-3-3-3--5-5-5-5-5-5--5-5-5-5-5-5--7-7-7-7-7-7--7-7-7-7-7-7--5-5-5-5-5-5--3-3-3-3-3-3--5-5-5-5-5-5----
---------------3-3-3-3-3-3----------------------------------------------------------------------------------]

Done!
Добавлено: 30.01.2014
Другие материалы по этой песне:

Страница создана 23.02.2012
http://primanota.ru/afi/silver-and-cold-chords.htm
Привет, Гость.
Предлагаем пройти революционный курс по гитаре.
Подарок от PrimaNota.Ru, забирай!