PrimaNota.ru - самый крупный в мире бесплатный архив песенных текстов, аккордов, табулатур и нот


AFI - Love Like Winter - текст песни, таба, бас-таба, видео

Регистрация Запомнить меня
Войти через:  Facebook Google Twitter Vk Yandex Mail.ru

AFI - Love Like Winter - текст песни, таба, бас-таба, видео

Печатать
Просмотров: 580
Авторы: David Marchand, Adam Carson, Hunter Burgan, Jade Puget

[Love Like Winter]
[AFI]
[Decemberunderground]

By: Joshua Oliveira
Tuning:D# G# C# F# A# D#

Okay, there's lotsa weird noises in this song so i tabbed how yu can
make some of them.

[Intro/Noise] - [00:00] - [00:22]
- -------------------------------------|
- -------------------------------------|
- -7-7-7-7--7-7-7-7--7-7-7-7--7-7-7-7--|
- -------------------------------------|
- -------------------------------------|
- -------------------------------------|
PM ..................................

[Verse 1] - [00:22] - [00:38]
- ---------------------------------------------------------------------|
- ---------------------------------------------------------------------|
- ---------------------------------------------------------------------|
- ---------------------------------------------------------------------|
- -----------------------------------------------------------------2-2-|
- -3-3-3-3-3-3-3-3-3-3-3-3-3-3-3-3-3-3-3-3-3-3-3-3-3-3-3-3-3-3-3-3-----|

  ---------------------------------------------------------------------|
  ---------------------------------------------------------------------|
  ---------------------------------------------------------------------|
  ---------------------------------------------------------------------|
  -2-2-2-2-2-2-2-2-2-2-2-2-2-2-2-2-2-2-2-2-2-2-2-2-2-2-2-2-2-2---------|
  -------------------------------------------------------------3-3-3-3-|

  ---------------------------------------------------------------------|
  ---------------------------------------------------------------------|
  ---------------------------------------------------------------------|
  ---------------------------------------------------------------------|
  ---------------------------------------------------------0-0-0-0-0-0-|
  -3-3-3-3-3-3-3-3-3-3-3-3-3-3-3-3-3-3-3-3-3-3-3-3-3-3-3-3-------------|

  -----------------------------------------------------|
  -----------------------------------------------------|
  -----------------------------------------------------|
  -----------------------------------------------------|
  -0-0-0-0-0-0-0-0-0-0-0-0-0-0-0-0-0-0-0-0-0-0-0-0-0-0-|
  -----------------------------------------------------|

[Chorus 1] - [00:38] - [01:02]
- -------------------------------------------------------------------|
- -------------------------------------------------------------------|
- -------------------------------------------------7-7-7-7-----------|
- -9-9-9-9-9-9-9-9-5-5-5-5-5-5-5-5-7x7x7x7x7x7x7x7-7-7-7-7-7-7-7-7-9-|
- -9-9-9-9-9-9-9-9-5-5-5-5-5-5-5-5-7x7x7x7x7x7x7x7-5-5-5-5-7-7-7-7-9-|
- -7-7-7-7-7-7-7-7-3-3-3-3-3-3-3-3-5x5x5x5x5x5x5x5---------5-5-5-5-7-|

  -----------------------------------------------------------------|
  -----------------------------------------------------------------|
  -------------------------------------------------7-7-7-7---------|
  -9-9-9-9-9-9-9-9-5-5-5-5-5-5-5-5-7-7-7-7-7-7-7-7-7-7-7-7-7-7-7-7-|
  -9-9-9-9-9-9-9-9-5-5-5-5-5-5-5-5-7-7-7-7-7-7-7-7-5-5-5-5-7-7-7-7-|
  -7-7-7-7-7-7-7-7-3-3-3-3-3-3-3-3-5-5-5-5-5-5-5-5---------5-5-5-5-|

  -------------------------------------------------------------------|
  -------------------------------------------------------------------|
  -------------------------------------------------7-7-7-7-----------|
  -9-9-9-9-9-9-9-9-5-5-5-5-5-5-5-5-7x7x7x7x7x7x7x7-7-7-7-7-7-7-7-7-9-|
  -9-9-9-9-9-9-9-9-5-5-5-5-5-5-5-5-7x7x7x7x7x7x7x7-5-5-5-5-7-7-7-7-9-|
  -7-7-7-7-7-7-7-7-3-3-3-3-3-3-3-3-5x5x5x5x5x5x5x5---------5-5-5-5-7-|

  -----------------------------------------------------------------|
  -----------------------------------------------------------------|
  -------------------------------------------------7-7-7-7---------|
  -9-9-9-9-9-9-9-9-5-5-5-5-5-5-5-5-7-7-7-7-7-7-7-7-7-7-7-7-7-7-7-7-|
  -9-9-9-9-9-9-9-9-5-5-5-5-5-5-5-5-7-7-7-7-7-7-7-7-5-5-5-5-7-7-7-7-|
  -7-7-7-7-7-7-7-7-3-3-3-3-3-3-3-3-5-5-5-5-5-5-5-5---------5-5-5-5-|
PM                                   .............

  -------------------------------------------------------|
  -------------------------------------------------------|
  -------------------------------------------------------|
  -9-9--9-5-5--5-7-7--7-7-7--7-9-9--9-5-5--5-7-7--7-7-7--|
  -9-9--9-5-5--5-7-7--7-7-7--7-9-9--9-5-5--5-7-7--7-7-7--|
  -7-7--7-3-3--3-5-5--5-5-5--5-7-7--7-3-3--3-5-5--5-5-5--|

[Fill/Noise] - [01:02] - [01:04]
- ---------------------------------|
- ---------------------------------|
- ---------------------------------|
- ---------5p0-------------5p0-----|
- -------------9p0-------------9p0-|
- -7p0-7p0---------7p0-7p0---------|

[Verse 2] - [01:04] - [01:36]
- ---------------------------------------------------------------------|
- ---------------------------------------------------------------------|
- ---------------------------------------------------------------------|
- ---------------------------------------------------------------------|
- -----------------------------------------------------------------2-2-|
- -3-3-3-3-3-3-3-3-3-3-3-3-3-3-3-3-3-3-3-3-3-3-3-3-3-3-3-3-3-3-3-3-----|

  ---------------------------------------------------------------------|
  ---------------------------------------------------------------------|
  ---------------------------------------------------------------------|
  ---------------------------------------------------------------------|
  -2-2-2-2-2-2-2-2-2-2-2-2-2-2-2-2-2-2-2-2-2-2-2-2-2-2-2-2-2-2---------|
  -------------------------------------------------------------3-3-3-3-|

  ---------------------------------------------------------------------|
  ---------------------------------------------------------------------|
  ---------------------------------------------------------------------|
  ---------------------------------------------------------------------|
  ---------------------------------------------------------0-0-0-0-0-0-|
  -3-3-3-3-3-3-3-3-3-3-3-3-3-3-3-3-3-3-3-3-3-3-3-3-3-3-3-3-------------|

  --------------------------------------------------------------------|
  --------------------------------------------------------------------|
  --------------------------------------------------------------------|
  --------------------------------------------------------------------|
  -0-0-0-0-0-0-0-0-0-0-0-0-0-0-0-0-0-0-0-0-0-0-0-0-0-0----2-2-2-2-2-2-|
  -----------------------------------------------------3~-------------|

  ---------------------------------------------------------------------|
  ---------------------------------------------------------------------|
  ---------------------------------------------------------------------|
  ---------------------------------------------------------------------|
  -2-2-2-2-2-2-2-2-2-2-2-2-2-2-2-2-2-2-2-2-2-2-2-2-2-2-----------------|
  -----------------------------------------------------3-3-3-3-3-3-3-3-|

  ---------------------------------------------------------|
  ---------------------------------------------------------|
  -------------------------------------------------7-7-7-7-|
  ---------------------------------------------------------|
  ---------------------------------------------------------|
  -3-3-3-3-3-3-3-3-3-3-3-3-3-3-3-3-3-3-3-3-3-3-3-3---------|
PM                                                 .......

[Chorus 2] - [01:36] - [02:00]
- -------------------------------------------------------------------|
- -------------------------------------------------------------------|
- -------------------------------------------------7-7-7-7-----------|
- -9-9-9-9-9-9-9-9-5-5-5-5-5-5-5-5-7x7x7x7x7x7x7x7-7-7-7-7-7-7-7-7-9-|
- -9-9-9-9-9-9-9-9-5-5-5-5-5-5-5-5-7x7x7x7x7x7x7x7-5-5-5-5-7-7-7-7-9-|
- -7-7-7-7-7-7-7-7-3-3-3-3-3-3-3-3-5x5x5x5x5x5x5x5---------5-5-5-5-7-|

  -----------------------------------------------------------------|
  -----------------------------------------------------------------|
  -------------------------------------------------7-7-7-7---------|
  -9-9-9-9-9-9-9-9-5-5-5-5-5-5-5-5-7-7-7-7-7-7-7-7-7-7-7-7-7-7-7-7-|
  -9-9-9-9-9-9-9-9-5-5-5-5-5-5-5-5-7-7-7-7-7-7-7-7-5-5-5-5-7-7-7-7-|
  -7-7-7-7-7-7-7-7-3-3-3-3-3-3-3-3-5-5-5-5-5-5-5-5---------5-5-5-5-|

  -------------------------------------------------------------------|
  -------------------------------------------------------------------|
  -------------------------------------------------7-7-7-7-----------|
  -9-9-9-9-9-9-9-9-5-5-5-5-5-5-5-5-7x7x7x7x7x7x7x7-7-7-7-7-7-7-7-7-9-|
  -9-9-9-9-9-9-9-9-5-5-5-5-5-5-5-5-7x7x7x7x7x7x7x7-5-5-5-5-7-7-7-7-9-|
  -7-7-7-7-7-7-7-7-3-3-3-3-3-3-3-3-5x5x5x5x5x5x5x5---------5-5-5-5-7-|

  -----------------------------------------------------------------|
  -----------------------------------------------------------------|
  -------------------------------------------------7-7-7-7---------|
  -9-9-9-9-9-9-9-9-5-5-5-5-5-5-5-5-7-7-7-7-7-7-7-7-7-7-7-7-7-7-7-7-|
  -9-9-9-9-9-9-9-9-5-5-5-5-5-5-5-5-7-7-7-7-7-7-7-7-5-5-5-5-7-7-7-7-|
  -7-7-7-7-7-7-7-7-3-3-3-3-3-3-3-3-5-5-5-5-5-5-5-5---------5-5-5-5-|
PM                                   .............

  -------------------------------------------------------|
  -------------------------------------------------------|
  -------------------------------------------------------|
  -9-9--9-5-5--5-7-7--7-7-7--7-9-9--9-5-5--5-7-7--7-7-7--|
  -9-9--9-5-5--5-7-7--7-7-7--7-9-9--9-5-5--5-7-7--7-7-7--|
  -7-7--7-3-3--3-5-5--5-5-5--5-7-7--7-3-3--3-5-5--5-5-5--|

[Quiet] - [02:00] - [02:20]
During this this the guitar hits the 9th fret on the high e string
(The really skinny one.) at 02:16..its just a waste of space to
tab it out..jsut to let yu kno lol.

[Outro] - [02:20] - [02:47]
- -------------------------------------------------------------------|
- -------------------------------------------------------------------|
- -------------------------------------------------7-7-7-7-----------|
- -9-9-9-9-9-9-9-9-5-5-5-5-5-5-5-5-7x7x7x7x7x7x7x7-7-7-7-7-7-7-7-7-9-|
- -9-9-9-9-9-9-9-9-5-5-5-5-5-5-5-5-7x7x7x7x7x7x7x7-5-5-5-5-7-7-7-7-9-|
- -7-7-7-7-7-7-7-7-3-3-3-3-3-3-3-3-5x5x5x5x5x5x5x5---------5-5-5-5-7-|

  -----------------------------------------------------------------|
  -----------------------------------------------------------------|
  -------------------------------------------------7-7-7-7---------|
  -9-9-9-9-9-9-9-9-5-5-5-5-5-5-5-5-7-7-7-7-7-7-7-7-7-7-7-7-7-7-7-7-|
  -9-9-9-9-9-9-9-9-5-5-5-5-5-5-5-5-7-7-7-7-7-7-7-7-5-5-5-5-7-7-7-7-|
  -7-7-7-7-7-7-7-7-3-3-3-3-3-3-3-3-5-5-5-5-5-5-5-5---------5-5-5-5-|

  -------------------------------------------------------------------|
  -------------------------------------------------------------------|
  -------------------------------------------------7-7-7-7-----------|
  -9-9-9-9-9-9-9-9-5-5-5-5-5-5-5-5-7x7x7x7x7x7x7x7-7-7-7-7-7-7-7-7-9-|
  -9-9-9-9-9-9-9-9-5-5-5-5-5-5-5-5-7x7x7x7x7x7x7x7-5-5-5-5-7-7-7-7-9-|
  -7-7-7-7-7-7-7-7-3-3-3-3-3-3-3-3-5x5x5x5x5x5x5x5---------5-5-5-5-7-|

  -----------------------------------------------------------------|
  -----------------------------------------------------------------|
  -------------------------------------------------7-7-7-7---------|
  -9-9-9-9-9-9-9-9-5-5-5-5-5-5-5-5-7-7-7-7-7-7-7-7-7-7-7-7-7-7-7-7-|
  -9-9-9-9-9-9-9-9-5-5-5-5-5-5-5-5-7-7-7-7-7-7-7-7-5-5-5-5-7-7-7-7-|
  -7-7-7-7-7-7-7-7-3-3-3-3-3-3-3-3-5-5-5-5-5-5-5-5---------5-5-5-5-|
PM                                   .............

  -------------------------------------------------------|
  -------------------------------------------------------|
  -------------------------------------------------------|
  -9-9--9-5-5--5-7-7--7-7-7--7-9-9--9-5-5--5-7-7--7-7-7--|
  -9-9--9-5-5--5-7-7--7-7-7--7-9-9--9-5-5--5-7-7--7-7-7--|
  -7-7--7-3-3--3-5-5--5-5-5--5-7-7--7-3-3--3-5-5--5-5-5--|

[Extra Noises To Play]
During the Chorus ends you here a synth play this..
- -7-5----------------7-5----------------|
- -----8-7~--8p7h8-7~-----8-7~--8p7h8-7~-|
- ---------------------------------------|
- ---------------------------------------|
- ---------------------------------------|
- ---------------------------------------|

[Symbols Used]
PM... Palm Mute the notes with Dots (.) under them.
x     Dead Note.
p     Pull Off.
~     Let Ring.
h     Hammer On.
Добавлено: 14.04.2012
Другие материалы по этой песне:

Страница создана 17.03.2012
http://primanota.ru/afi/love-like-winter-chords.htm
Привет, Гость.
Предлагаем пройти революционный курс по гитаре.
Подарок от PrimaNota.Ru, забирай!