PrimaNota.ru - самый крупный в мире бесплатный архив песенных текстов, аккордов, табулатур и нот


AFI - The Despair Factor - аккорды и текст, таба, бас-таба, видео

Регистрация Запомнить меня
Войти через:  Facebook Google Twitter Vk Yandex Mail.ru

AFI - The Despair Factor - аккорды и текст, таба, бас-таба, видео

Печатать
Просмотров: 202
Уроки эстрадного вокала в Санкт-Петербурге
Авторы музыки: AFI
Авторы текста: Davey Havok
The Despair Factor
AFI
Intro:		--x---3---5---7---3---5---3---3---5---6---3---x---3---5---7---3---5---3---3---5---5---
--x---3---5---8---3---5---3---3---5---6---3---x---3---5---8---3---5---3---3---5---7---
--x---4---6---9---4---6---4---4---6---7---4---x---4---6---9---4---6---4---4---6---7---
--2---5---7---9---5---7---5---5---7---8---5---2---5---7---9---5---7---5---5---7---7---
--2---5---7---7---5---7---5---5---7---8---5---2---5---7---7---5---7---5---5---7---5---
--x---3---5---7---3---5---3---3---5---6---3---x---3---5---7---3---5---3---3---5---5---
 
--------------------------------------------x-----7-------------------------------
--------------------------------------------x-----8-------------------------------
--------------------------------------------x-----9-------------------------------
--------------------------------------------2-----9-------------------------------
------------5-----------7------------5----2------7--------------------------------
---x---3-------x---5-------x---3--------x------7-----slide down to verse---

Verse:		---x---7---3------------7---x---7---3--------5-----------------------------
---x---8---3------------7---x---8---3--------7-----------------------------
---x---9---4---4---7---8---x---9---4---4---7-----------------x-------------
---2---9---5---7---4---9---2---9---5---7---7-------------4-------4---------
---2---7---5---5---5---9---2---7---5---5---5---------5---------------5-----
---x---7---3---3---5---7---x---7---3---3---5-----7-------------------------

Chorus:		---3---7---5---
---5---8---7---
---5---9---7---
---5---9---7---
---3---7---5---
---3---7---5---

Riff over 2nd half of 2nd chorus:
---x---x---x----x-x-x----x---x---x----x-x-x----x---x---x---x---x---x----x-x-x----x---x---x---------------
---8---7---5----8-7-5----8---7---5----8-7-5----7---5---3---8---7---5----8-7-5----8---7---5---------------
---------------------------------------------------------------------------------------------------------
---------------------------------------------------------------------------------------------------------
---------------------------------------------------------------------------------------------------------
---------------------------------------------------------------------------------------------------------

---x-x-x----x---x---10---12--------
---8-7-5----7---8---10----x--------
-----------------------------------
-----------------------------------
-----------------------------------
-----------------------------------

Break:		-------x-----------x-----------10------------8------------7-----------------------------------------------------
-----------8-----------8-------------8------------8----------------8-----------8-------8-------7----------------
---9-----------9-----------9-------------9------------9-------7-------7---7-------7-------7-------7---7---------
----------------------------------------------------------------------------------------------------------------
----------------------------------------------------------------------------------------------------------------
----------------------------------------------------------------------------------------------------------------

------------------------------x-----------x-----------10-----------8-----------7--------------------------------
---7-----------7-----------------8-----------8-------------8-----------8---------------8------------8-----------
-------7---7-------7----9-----------9-----------9-------------9-----------9-------7-------7---7-------7---------
----------------------------------------------------------------------------------------------------------------
----------------------------------------------------------------------------------------------------------------
----------------------------------------------------------------------------------------------------------------

-----------------------------------------------
---10-------7------------7----------7----------
---------7-------7---7-------7--7-------7------
-----------------------------------------------
-----------------------------------------------
-----------------------------------------------

Riff #2 begins with vocals on 2nd half of clean tone part:
-----------------------------------------------------------------------------
--------8---7---------8--8--8--8--8---10--10--10---7--7--7--7-7--------------
---9-------------9----9--9--9--9--9----9---9---9----7--7--7--7-7-------------
-----------------------------------------------------------------------------
-----------------------------------------------------------------------------
-----------------------------------------------------------------------------

End: This part is kind of tricky, the chords in parentheses are arpeggiated
(for those of you not familiar with this, it requires strumming through the
notes individually and quickly in a smooth motion). Also, all the chords
that are only open strings are played with upstrokes, this is important to
get the right rhythm and feel of the part.
---x---x------------------------------------------------------------------------3----------------------
---x---x------------x---x---x---x----(x)---x--------(x)---x-------x---x----3---------------------------
---x---x---x-------x---x---x---x----(4)--------4---(2)--------2---x---x---4---4---7---9---11-----------
---2-----------2----4-------5--------(5)-------------(5)------------5--------5---7---x---x----x--------
---2----------------------------------------------------------------------------5---5---5---7----9-----
---x----------------------------------------------------------------------------3---3------------------

2nd time through is the same but at the end this progression replaces the ascending octave chords
---5----------------------------------------------------
---7----------------------------------------------------
---7----x-----------------------------------------------
---7----4-----then slide down into next phrase----------
---5----5-----------------------------------------------
---5----------------------------------------------------

The final time through this progression, end with this chord:
----7----
----7----
----8----
----9----
----9----
----7----

2nd part of End:
--------------------------------------------------------------------------------3------------------
--------------------------------------------------------------------------------3------------------
---x---x---x-------------------------x---x---x-------------------------------4----2--2-------------
---2---2---2----12---12slide11---2---2---2----11--11slide14---12-----5---4---7---------------------
---2---2---2-------------------------2---2---2-------------------------------5----5---5------------
---x---x---x----10---10slide9-----x---x---x----9----9slide12----10----3----2---2-------------------

The only difference in the 4 measure of the end are the changes in the octave chord progression,
which I'm sure you can hear, and they are:
---------------------
---------------------
----7---7slide9------
---------------------
----5---5slide7------
---------------------

-----------------------
----8---8slide10-------
-----------------------
-----------------------
----7---7slide9--------
-----------------------
Добавлено: 16.01.2014
Другие материалы по этой песне:

Страница создана 21.02.2012
http://primanota.ru/afi/the-despair-factor-chords.htm
Привет, Гость.
Предлагаем пройти революционный курс по гитаре.
Подарок от PrimaNota.Ru, забирай!