PrimaNota.ru - самый крупный в мире бесплатный архив песенных текстов, аккордов, табулатур и нот


AFI - Missing Frame - текст песни, таба, бас-таба, видео

Регистрация Запомнить меня
Войти через:  Facebook Google Twitter Vk Yandex Mail.ru

AFI - Missing Frame - текст песни, таба, бас-таба, видео

Печатать
Просмотров: 346
Уроки эстрадного вокала в Санкт-Петербурге
Авторы: David Marchand, Adam Carson, Hunter Burgan, Jade Puget

bored one day and didnt see this tab...super easy song....hope i got it right.

intro riff
[---------------------------------------------------------]
[---------------------------------------------------------]   last time
[---------------------------------------------------------]X3 finish on
[---------88--866--688--8-----88--866--6------]---6bb-----]
[---------------------------------------88--8-------------]
[----66--6---------------66--6----------------------------]

verse riff 1
[-----------------------------------]
[-----------------------------------]
[---6---5---6---5---3---5---6---5---]
[---6X8-5X8-6X8-5X8-3X8-5X8-6X8-5X8-]
[---4---3---4---3---1---3---4---3---]
[-----------------------------------]
start with palm mute and let up...listen to song...

verse riff 2
[------------------------------]
[------------------------------]
[----6----5--------33----------]
[----6X16-5X16-----33----------]
[----4----3--------11----------]
[------------------------------]
after go back to riff one...
tab the rest later...its my bedtime=D coming mom! geesh relax mommmy im coming....yes i 
sill want u to read me a story!
Добавлено: 08.06.2012
Другие материалы по этой песне:

Страница создана 26.02.2012
http://primanota.ru/afi/missing-frame-chords.htm
Привет, Гость.
Предлагаем пройти революционный курс по гитаре.
Подарок от PrimaNota.Ru, забирай!