PrimaNota.ru - самый крупный в мире бесплатный архив песенных текстов, аккордов, табулатур и нот


AFI - Medicate - текст песни, таба, бас-таба, видео

Регистрация Запомнить меня
Войти через:  Facebook Google Twitter Vk Yandex Mail.ru

AFI - Medicate - текст песни, таба, бас-таба, видео

Печатать
Просмотров: 585
Авторы: David Marchand, Adam Carson, Hunter Burgan, Jade Puget

SOLO (Wah - wah pedal!)
Eb-/17-1717171717-------/19-191919191919--------13p0-12p0------------10----|
Bb---------------10-12-13---------------12-13-15---------10-12-13-10-13-15b|
Gb-------------------------------------------------------------------------|
Db-------------------------------------------------------------------------|
Ab-------------------------------------------------------------------------|
Eb-------------------------------------------------------------------------|
                                               
Eb--------------------t17p5---------------------t20p8-------------------------------|
Bb----------------------------------------------------t20p8-------------------------|
Gb----------------------------------------------------------------------------------|
Db---------------------------t15p10p7h10t15p10p7h10--------7h10p0-10/14p0-7h10/14---|
Ab-17p12p8h12t17p12p8h12------------------------------------------------------------|
Eb----------------------------------------------------------------------------------|

Eb---t12p8p5h8-t12p8p5h8-t15p8p5h8-t17~-------------|
Bb--------------------------------------------------|
Gb--------------------------------------------------|
Db--------------------------------------------------|
Ab--------------------------------------------------|
Eb--------------------------------------------------|

Eb-------------------------------------------------------------------------|
Bb-------------------------------------------------------------------------|
Gb---t9p5p2h5-t9p5p2h5-t9p5p2h5-t7p5p2h5/----------------------------------|
Db-------------------------------------------------------------------------|
Ab-------------------------------------------------------------------------|
Ab-------------------------------------------------------------------------|

Outro of solo
Eb-------------------------------------------------------------------------|
Bb-------------------------------------------------------------------------|
Gb------------------5-7--------10p7h10p7/5---------------------------------|
Db------------5-7--------------------------------7~------------------------|
Ab--/7-7-7-----------------------------------------------------------------|
Eb-------------------------------------------------------------------------|
Добавлено: 27.03.2012
Другие материалы по этой песне:

Страница создана 27.03.2012
http://primanota.ru/afi/medicate-chords.htm
Привет, Гость.
Предлагаем пройти революционный курс по гитаре.
Подарок от PrimaNota.Ru, забирай!