PrimaNota.ru - самый крупный в мире бесплатный архив песенных текстов, аккордов, табулатур и нот


AFI - Answer That And Stay Fashionable - бас-таба, видео

Регистрация Запомнить меня
Войти через:  Facebook Google Twitter Vk Yandex Mail.ru

AFI - Answer That And Stay Fashionable - бас-таба, видео

Печатать
Просмотров: 113
Уроки эстрадного вокала в Санкт-Петербурге
--------------------------------------
Afi-answer that and stay fashionable
Bass tab
--------------------------------------
Bassist-Geoff
Tabbed by-teenagerfrommars616@hotmail.com
--------------------------------------


Two of a kind
Intro- guitar first then bass kicks in!
(5 sec.)
GI---12-14-17-14-----------------|I
aI-12----------------------------|I
DI---------------666655555-------|I
eI-------------------------------|I
Verse- like everything else in 16th notes!

GI----------------------------------------I---|x2
aI---------------------------------33333------|I
dI-555555-----5555----55555----5555-----------|I
eI-------33333----5566-----3333---------------|I
chorous
gI-------------------I----------------I---|x1
aI-----------3333----I--------3333--------|I
dI-55555-----------33I5555---------6-5----|I
eI------33333----66--I----3333------------|I
reapeat-verse x2
reapeat chorous till the end!(about 4x should do it!)

HALF EMPTY BOTTLE.

Intro          verse x4
gI--4-4-4444I----------------------------|I
aI----------I----------------------------|I
dI----------I-02222-02222----------------|I
eI----------I------------0333323333------|I

Chorous2x
gI--------------------------/1197--------------|I
aI------------------------99-----97------------|I
dI-222222022222-555555-779---------55555-779---|I
eI---------------------------------------------|I

Verse x4
Chorus x2

For solo play verse
Then chorus

Outro
gI------------------------------------------------|I
aI------------------------------------------------|I
dI-2~-22222-555555-9952\0-------------------------|I
eI------------------------------------------------|I

YURF RENDEMEIN
 (This song is as hard to play as to pronounce)

  Intro...w/solo           SOLO!!!!!!!!!!!!!!!!!!!!!!!!!!!!!!!
g|--------------------------|--------------8-8-----8-11-10-8-------------------------------|
a|--------------------------|-10-10-8-8-10----10-10----------10-10-8-8--------------------6|
d|-3~--33333-66666-----44444|-----------------------------10-----------10-10-8-10- 10-88-6-|
e|----------------66666-----|--------------------------------------------------------------|

Verse x2
g|------------------------------------------|
a|------------------------------------------|
d|-33333---------------33333---------66666--|
e|------44444-6666-4444-----4444-6666-------|
 Chorus
g|----------------------x2-|-------------------------|
a|---------6---------------|-------------------------|
d|--333333--6-8------------|--------------66666-88888|
e|--------------66666-88888|-6666-88888x4 -----------|
Verse x2
Chorus

Bridge
g|------------------------------------------|
a|-*1010-1010-1010-1010-10-8----------6-----|
d|-------------------------10-8-10-8-6------|
e|------------------------------------------|
    *=10's not 1 0's

g|-------------------------------------------------------------|
a|--3333333-----------------------3333333--------------6666666-|
d|---------4444444-6666666-4444444-------444444-6666666--------|
e|-------------------------------------------------------------|
 Outro.
          Erratic please!
g|--------------------------|
a|--------444444------------|x as many times as needed!
d|-3333333-------3~------3\0|
e|--------------------------|

 I WANT A MOHAWK
(but my mom wont let me one) dead serious she wont!!!!!!!!!
  Guitar first
 Intro       {    verse x2   verse verse verse verse     }
G|---------|---------------------|----------------------------|--------------|
a|---------|---------------------|---------55-77--------------|--------------|
d|-5-5-535-|--555555555-------333|-55555-7--------------3333--|5555/14-----33|
e|---------|-----------6666-33---|---------------6666-33------|-------66633--|

Chorus
g|------------------------------------------|
a|------------------------------------------|
d|-5-5873-5-5873-5-5873-5555555--783--------|
e|------------------------------------------|
Verse
Outro
g|----------------------------------------------------------------|
a|----------------------------------------------------------------|
d|--5555555-83-555555-1-8-55555-8-10-5555555-1-8---5-5-535-5-5 535|
e|----------------------------------------------------------------|


 BROWNIE BOTTOM SUNDAY

Intro
g|-------------------------------------------|x6
a|-------------------------------------------|
d|-\4444----44444-7----44444-----77777-------|
e|------5555-------7777-----55555-----777777-|

Chorus
g|------------------------------------------|
a|------------------------------------------|
d|-------7777-4444------------77777-44444---|
e|--55555----------44555-55555--------------|


g|------------------------------------------|
a|------------------------------------------|
d|---------7777-44444-----------------------|
e|-457-5555----------44555-55555-7777777----|

bridge
g|-----------------------------------------------|x2
a|-----------------------------------------77777-|
d|-444444777777------------44444477777-9999------|
e|-------------555555777777----------------------|
Play chorus once during solo after bridge

THE CHECKERED DEMON.

INTRO
g|------------------------------------------------|
a|-----------------------------------------444444-|
d|--222222------------------22222-----------------|
e|-------333333-555555-22222-----3333-5555--------|
Little solo thing
g|----------------------------------------------------|
a|---------------------420----------------------44444-|
d|--22222-----------------42002-222222----------------|
e|-------333333-555555----------------333333-555555---|

g|------------------------------------------|
a|-------------5555545555----------420------|x2 but second time throw in a couple of fours on
d|-22222122222------------------------42002-|your g-string
e|-----------------------5555545555---------|

Verse                         end of chorus
g|-------------------------|-------2-------|
a|------------00000002222--|-----02--------|
d|-02222202222-------------|---02----------|
e|-------------------------|---------------|
Chorus as many times necessary
g|------------------------------------------|
a|------------------420---------------------|
d|--22222--------------42002----------------|
e|-------33333-55555------------------------|
 Last bit                     outro(I THINK)
g|------------------------|--------------------------------------------------|
a|--------220-------------|--------------------555555555588888888-1098910989-|
d|-2222222---------22000--|-22222222222--------------------------------------|
e|-----------333333-------|------------55555555------------------------------|


CEREAL WARS
Intro
g|------------------------------------------|
a|----23532-----------23532----5------------|
d|-3~------3--53232-3------3----------------|
e|----------3------3------------------------|

Verse
g|------------------------------------------|
a|---22---44-------22222--------------------|
d|-22--22---4-00-22-------------------------|
e|------------------------------------------|

Chorus
g|------------------------------------------|play boyh till end of song not that hard to
a|----------------0-00----------------------|figure out
d|-022220222202222-2--0222202222022-3333333-|
e|------------------------------------------|

THE MOHTER IN ME
  Intro           guitar first

g|------------------------------------------|
a|---777--777-------------------------------|
d|------------------------/7----------------|
e|-55---55---5555555555555------------------|


Verse
g|------------------------------------------|x4
a|------------------------------------------|
d|--57777775777777---55---------------------|
e|----------------888--777------------------|


Chorus
                             16th notes!
g|-----------------------/9\9-------------------------975--------|x as many times necessary
a|-------------------------------------------------------75------|
d|-77777777------------------7777777-----------------------757---|
e|---------8888888-555555-----------888888-555555----------------|

Outro part1 x4
g|-------------------|
a|-------------------|
d|--7777777----------|
e|---------8888-5555-|

 Part 2                   part 3
g|---97-----------------|-------7---9---|
a|-----109107--7--------|---7--7---9----|
d|--------------1010-97-|--7------------|
e|----------------------|---------------|

RIZZO IN THE BOX
Intro

g|-------------------------------------------------|
a|-------------------------------------------------|
d|-------777777------------------777777------------|
e|--99999------9999-777777-999999------55555-777777|


Verse
g|----------------------------------------97------|
a|------------------------------------------97----|
d|--------777777--------------------77777-----979-|
e|--999999------999999-7777777-99999--------------|

Chorus
                            Last note
g|-------------------------|----|
a|-------------------------|--9-|
d|-777777-----777777-------|----|
e|-------55555------99777--|----|
KUNG-FU DEVIL-
Intro part 1
g|-222222------------------|x2
a|-------22222-55555-22222-|
d|-------------------------|
e|-------------------------|

Intro part 2
g|----------------------|
a|---------555554477----|
d|-55-55-55-------------|
e|-=--------------------|

Intro part three
g|-------------------------------------|
a|------55------54--------55-555555447-|
d|-55555--555555--55555555-------------|
e|-------------------------------------|

Verse
g|-----------------------------------------|
a|---------5555----------------------------|
d|--5555555----0000--33333333-1111133333---|
e|-----------------------------------------|
  Pre-chorus
g|-----------------------------------|
a|-------------------------555555----|
d|-000000000-222222-3333333----------|
e|-----------------------------------|
Chorous

g|---------------------------------|
a|---------------------------------|go out on -0- of a
d|-55555555-------777777-3333333-5-|
e|----------555555-----------------|

YOUR NAME HERE
Intro and main verse
g|----------------------------------------45554--|
a|------------3333333332-------------55555-------|
d|-00000000000----------3333333333333------------|
e|-----------------------------------------------|

g|------------------------------------------|
a|----------320-323-5-----------------------|
d|-000000000---3-----33333333333-5555533220-|
e|------------------------------------------|
chorus

g|------------------------------------------|
a|------3333333-55555555566666677970--------|
d|-00000------------------------------------|
e|------------------------------------------|
Little break part

g|-------------------------------------------------------------|
a|--3--5---32--------------------------------------------------|
d|-0-3---0---0--5555222000-for outro just play verse straight--|
e|-------------------------------------------------------------|
NY-QUIL
 Intro
g|------------------------------------------|
a|------------------------------------------|
d|-7-5-7-5--7777777-555--777-55555-77755----|
e|--------------------------------------7~--|

Pre-verse            verse
g|----------------|-----------------------------------|
a|---------7------|-------------------7---------------|
d|-----7----5--9--|---------9----------555555--9------|
e|-7----5-------7-|---777777--55555555----------55555-|

Chorus
g|------------------------------------------|----------------|
a|------------------------------------------|----------------|
d|--99999-55555-777777-----9999-5555-7-7-7-7|-7777-5---------|
e|--------------------5555------------------|----------------|

After all this you should be able to recognize the rest of the song

Don
Добавлено: 15.11.2013
Другие материалы по этой песне:
  • Аккорды и текст

Страница создана 15.11.2013
http://primanota.ru/afi/answer-that-and-stay-fashionable-chords.htm
Привет, Гость.
Предлагаем пройти революционный курс по гитаре.
Подарок от PrimaNota.Ru, забирай!