PrimaNota.ru - самый крупный в мире бесплатный архив песенных текстов, аккордов, табулатур и нот


AFI - Danceing through sunday intro and verse - таба, видео

Регистрация Запомнить меня
Войти через:  Facebook Google Twitter Vk Yandex Mail.ru

AFI - Danceing through sunday intro and verse - таба, видео

Печатать
Просмотров: 111
Уроки эстрадного вокала в Санкт-Петербурге


Tabbed by:Vash_Da_King
Email:

Tuning:standard

Heavy Distortion
Intro
e|---------------------------------------------------------------------------|
B|---------------------------------------------------------------------------|
G|---------------------------------55-555-777-77-----------------------------|
D|-999-888-777-5-2-999-888-777-5-2-55-555-777-77-----------------------------|
A|-777-777-777-7-2-777-777-777-7-2-33-333-555-55-----------------------------|
E|-000-000-000-0-0-000-000-000-0-0-------------------------------------------|


Verse
e|---------------------------------------------------------------------------|
B|---------------------------------------------------------------------------|
G|-----------------55-555-777-77---------------------------------------------|
D|-999-888-777-5-2-55-555-777-77---------------------------------------------|
A|-777-777-777-7-2-33-333-555-55---------------------------------------------|
E|-000-000-000-0-0-----------------------------------------------------------|


Добавлено: 10.12.2013
Другие материалы по этой песне:
  • Аккорды и текст

Страница создана 10.12.2013
http://primanota.ru/afi/danceing-through-sunday-intro-and-verse-chords.htm
Привет, Гость.
Предлагаем пройти революционный курс по гитаре.
Подарок от PrimaNota.Ru, забирай!