PrimaNota.ru - самый крупный в мире бесплатный архив песенных текстов, аккордов, табулатур и нот


AFI - Silver and cold complete - таба, видео

Регистрация Запомнить меня
Войти через:  Facebook Google Twitter Vk Yandex Mail.ru

AFI - Silver and cold complete - таба, видео

Печатать
Просмотров: 125
Уроки эстрадного вокала в Санкт-Петербурге


Song: Silver And Cold
Band: AFI
Album: Sing the Sorrow
Standard tuning

Piano Intro: (Arranged for guitar; fingerpicked)

|-7-----7-----7-----7------7-----------5----------------------------|
|-----7-----7-----7-----10-----7-----5---8-7---5----7----8----------|
|---7-----7-----7-----7------7---6-7--------------------------------|
|-9-----5-----7-----9------9-----7-----5----------------------------|
|----------------------------------------------7--------------------|
|-------------------------------------------------------------------|

(drums)

e---------------------------------------------------------------------------
B---------------------------------------------------------------------------
G---------------------------------------------------------------------------
D--8-8-8-8-8-8-8-6-6-6-6-6-6-4-4-4-4-4-4-6-6-6-6-6-6-8-8-8-8-8-8-10-10-10-10-
A--8-8-8-8-8-8-8-6-6-6-6-6-6-4-4-4-4-4-4-6-6-6-6-6-6-8-8-8-8-8-8--8--8--8--8-
E--6-6-6-6-6-6-6-4-4-4-4-4-4-2-2-2-2-2-2-4-4-4-4-4-4-6-6-6-6-6-6--8--8--8--8-

e--------------------------------]
B--------------------------------]
G--------------------------------]
D--10-10-11-11-11-11-11-11-0-13--]let ring
A---8--8-11-11-11-11-11-11-0-13--]
E---8--8--9--9--9--9--9--9-0-11--]

Verse 1
e-----------------------------------------------------------------------]
B-----------------------------------------------------------------------]
G-------------------------------------------(8)--------------{8}---]
D------8----4----6----3----8----6----4----(8)----------------{8}---] 2x
A----8----4----6----3----8----6----4----(6)------------------{6}---]
E--6----2----4----1----6----4----2-------------------------------------]
( )- first time only   {} second time only
P.M.
e------------------------------------------------------------------------]
B------------------------------------------------------------------------]
G-----------------------------------------------------------]
D--8-x-x-4-x-x-6-x-x-3-x-x-8-x-x-6-x-x-4-x-x-6-x-x----------]
A--8-x-x-4-x-x-6-x-x-3-x-x-8-x-x-6-x-x-4-x-x-6-x-x----------]
E--6-x-x-2-x-x-4-x-x-1-x-x-6-x-x-4-x-x-2-x-x-4-x-x-----------]

Second time through

e------------------------------------------------------------------------]
B------------------------------------------------------------------------]
G------------------------------------------------------------------------]
D--8-x-x-4-x-x-6-x-x-3-x-x-----8----6----4----2-2-2-2-2-2-2-2-2-2-2-2-2--]
A--8-x-x-4-x-x-6-x-x-3-x-x---8----6----4------2-2-2-2-2-2-2-2-2-2-2-2-2--]
E--6-x-x-2-x-x-4-x-x-1-x-x-6----4----2--------0-0-0-0-0-0-0-0-0-0-0-0-0--]
| Lightly ease up on  the palm muting each stroke--------------pm-------------------|








Chorus
e---------------------------------------------------------------------
B---------------------------------------------------------------------
G--4-4-4-4---------6-6-6-6-8-8-8-8--8-8-8-8-4-4-4-4-6-6-6-6-3-3-3-3---
D--4-4-4-4-4-4-4-4-6-6-6-6-8-8-8-8--8-8-8-8-4-4-4-4-6-6-6-6-1-1-1-1---
A--2-2-2-2-4-4-4-4-4-4-4-4-6-6-6-6--6-6-6-6-2-2-2-2-4-4-4-4-1-1-1-1---
E----------2-2-2-2----------------------------------------------------

e---------------------------------------------------------------------------
B---------------------------------------------------------------------------
G--8-8-8-8-4-4-4-4-6-6-6-6-8-8-8-8--8-8-8-8-6-6-6-6-4-4-4-4-4-4-4-4-6-6-6-6-
D--8-8-8-8-4-4-4-4-6-6-6-6-8-8-8-8--8-8-8-8-6-6-6-6-4-4-4-4-4-4-4-4-6-6-6-6-
A--6-6-6-6-2-2-2-2-4-4-4-4-6-6-6-6--6-6-6-6-4-4-4-4-2-2-2-2-2-2-2-2-4-4-4-4-
E---------------------------------------------------------------------------




e-----------]
B-----------]
G--6-6-6-6--]
D--6-6-6-6--]
A--4-4-4-4--]
E-----------]


e-----------------------------------------------------------------------]
B-----------------------------------------------------------------------]
G-------------------------------------------(8)--------------{8}---]
D------8----4----6----3----8----6----4----(8)----------------{8}---] 2x
A----8----4----6----3----8----6----4----(6)------------------{6}---]
E--6----2----4----1----6----4----2-------------------------------------]
( )- first time only   {} second time only
P.M.
e------------------------------------------------------------------------]
B------------------------------------------------------------------------]
G-----------------------------------------------------------]
D--8-x-x-4-x-x-6-x-x-3-x-x-8-x-x-6-x-x-4-x-x-6-x-x----------]
A--8-x-x-4-x-x-6-x-x-3-x-x-8-x-x-6-x-x-4-x-x-6-x-x----------]
E--6-x-x-2-x-x-4-x-x-1-x-x-6-x-x-4-x-x-2-x-x-4-x-x-----------]

Second time through
e------------------------------------------------------------------------]
B------------------------------------------------------------------------]
G------------------------------------------------------------------------]
D--8-x-x-4-x-x-6-x-x-3-x-x-----8----6----4----2-2-2-2-2-2-2-2-2-2-2-2-2--]
A--8-x-x-4-x-x-6-x-x-3-x-x---8----6----4------2-2-2-2-2-2-2-2-2-2-2-2-2--]
E--6-x-x-2-x-x-4-x-x-1-x-x-6----4----2--------0-0-0-0-0-0-0-0-0-0-0-0-0--]

                                              |---------(P)------------|
                             Lightly ease up on  the palm muting each stroke


e------------------------------------------------------------------------]
B------------------------------------------------------------------------]
G-------------------------------------------4-4-4-6-6-6-8-8-8-8----------]
D--8-8--4-4--6-6--3-3--     ---8----6----4--4-4-4-6-6-6-8-8-8-8----------]
A--8-8--4-4--6-6--3-3- x3   --8----6----4---2-2-2-4-4-4-6-6-6-6----------]
E--6-6--2-2--4-4--1-1--     -6----4----2---------------------------------]

Chorus
e---------------------------------------------------------------------
B---------------------------------------------------------------------
G--4-4-4-4---------6-6-6-6-8-8-8-8--8-8-8-8-4-4-4-4-6-6-6-6-3-3-3-3---
D--4-4-4-4-4-4-4-4-6-6-6-6-8-8-8-8--8-8-8-8-4-4-4-4-6-6-6-6-1-1-1-1---
A--2-2-2-2-4-4-4-4-4-4-4-4-6-6-6-6--6-6-6-6-2-2-2-2-4-4-4-4-1-1-1-1---
E----------2-2-2-2----------------------------------------------------

e---------------------------------------------------------------------------
B---------------------------------------------------------------------------
G--8-8-8-8-4-4-4-4-6-6-6-6-8-8-8-8--8-8-8-8-6-6-6-6-4-4-4-4-6-6-6-6-3~------
D--8-8-8-8-4-4-4-4-6-6-6-6-8-8-8-8--8-8-8-8-6-6-6-6-4-4-4-4-6-6-6-6-3~------
A--6-6-6-6-2-2-2-2-4-4-4-4-6-6-6-6--6-6-6-6-4-4-4-4-2-2-2-2-4-4-4-4-1~------
E---------------------------------------------------------------------------
Let ring




BRIDGE						(vocals start)
Eb|----------------------------------------------------------------------||
Bb|----------------------------------------------------------------------||
Gb|----------------------------------------------------------------------||
Db|----------5-4------------4-----------5-4------------------------------||
Ab|2-2-2/4-5------2-2-2/4-5---2-2-2/4-5------2-2-2-----------------------||
Eb|----------------------------------------------------------------------||


e-----------------------------------------------------------------------]
B-----------------------------------------------------------------------]
G-------------------------------------------(8)-------------------------]x4
D------8----4----6----3----8----6----4----(8)---------------------------]
A----8----4----6----3----8----6----4----(6)-----------------------------]
E--6----2----4----1----6----4----2--------------------------------------]
( )- first time only   {} second time only



e----------------------------------------------------------------------]
B----------------------------------------------------------------------]
G----------------------------------------------------------------------]
D-8~--8-8-8~---8-8-8~--8-8-8-8-8-8-8-8---------------------------------]
A-8~--8-8-8~---8-8-8~--8-8-8-8-8-8-8-8---------------------------------]
E-6~--6-6-6~---6-6-6~--6-6-6-6-6-6-6-6---------------------------------]




Play Chorus until the end
e---------------------------------------------------------------------
B---------------------------------------------------------------------
G--4-4-4-4---------6-6-6-6-8-8-8-8--8-8-8-8-4-4-4-4-6-6-6-6-3-3-3-3---
D--4-4-4-4-4-4-4-4-6-6-6-6-8-8-8-8--8-8-8-8-4-4-4-4-6-6-6-6-1-1-1-1---
A--2-2-2-2-4-4-4-4-4-4-4-4-6-6-6-6--6-6-6-6-2-2-2-2-4-4-4-4-1-1-1-1---
E----------2-2-2-2----------------------------------------------------

e---------------------------------------------------------------------------
B---------------------------------------------------------------------------
G--8-8-8-8-4-4-4-4-6-6-6-6-8-8-8-8--8-8-8-8-6-6-6-6-4-4-4-4-4-4-4-4-6-6-6-6-
D--8-8-8-8-4-4-4-4-6-6-6-6-8-8-8-8--8-8-8-8-6-6-6-6-4-4-4-4-4-4-4-4-6-6-6-6-
A--6-6-6-6-2-2-2-2-4-4-4-4-6-6-6-6--6-6-6-6-4-4-4-4-2-2-2-2-2-2-2-2-4-4-4-4-
E---------------------------------------------------------------------------

e-----------]
B-----------]
G--6-6-6-6--]
D--6-6-6-6--]
A--4-4-4-4--]
E-----------]


Guitar 2 while playing ending chorus
|-8----8-7p0h7-5---5-3---3-2---2-3---0~-------|
|---------------------------------------------|
|---------------------------------------------|
|---10-----------7-----5-----4-----5----------|
|---------------------------------------------|
 |---------------------------------------------|
Best on Microsoft word size 11


Добавлено: 26.09.2013
Другие материалы по этой песне:
  • Аккорды и текст

Страница создана 26.09.2013
http://primanota.ru/afi/silver-and-cold-complete-chords.htm
Привет, Гость.
Предлагаем пройти революционный курс по гитаре.
Подарок от PrimaNota.Ru, забирай!