PrimaNota.ru - самый крупный в мире бесплатный архив песенных текстов, аккордов, табулатур и нот


Adept - Shark Shark Shark - текст песни, таба, видео

Регистрация Запомнить меня
Войти через:  Facebook Google Twitter Vk Yandex Mail.ru

Adept - Shark Shark Shark - текст песни, таба, видео

Печатать
Просмотров: 508
Hi guys
hope you like this =)
learned this 100% by ear so its not perfect

watch my video to figure out stuffs =)     --->  http://www.youtube.com/watch?v=w00moawQwS8


INTRO

|------------------------------------------------------------------------------------------|
|------------------------------------------------------------------------------------------|
|------------------------------------------------------------------------------------------|
|-------5--0--3--0--------2--0--------------0-------5--0--3--0--------2--0--------------0--|
|--0----------------------------3--0--1--3-----0----------------------------3--0--1--3-----|
|--0----------------x--x-----------------------0----------------x--x-----------------------|

|------------------------------------------------------------------------------------------|
|------------------------------------------------------------------------------------------|
|------------------------------------------------------------------------------------------|
|-------5--0--3--0--------2--0--------------0-------5--0--3--0--------5--0--3----8-7-5-----|
|--0----------------------------3--0--1--3-----0-------------------------------------------|
|--0----------------x--x-----------------------0----------------x--x-----------------------|

|------------------------------------------------------------------------------------------|
|------------------------------------------------------------------------------------------|
|------------------------------------------------------------------------------------------|
|-------5--0--3--0--------2--0--------------0-------5--0--3--0--------2--0--------------0--|
|--0----------------------------3--0--1--3-----0----------------------------3--0--1--3-----|
|--0----------------x--x-----------------------0----------------x--x-----------------------|

|------------------------------------------------------------------------------------------|
|------------------------------------------------------------------------------------------|
|------------------------------------------------------------------------------------------|
|-------5--0--3--0--------2--0--------------0-------5--0--3--0-----------------------------|
|--0----------------------------3--0--1--3-----0-------------------------------------------|
|--0----------------x--x-----------------------0------------------0-0-0-0--0--0-0---12/----|

verse
(tapping)

|------------------------------------------------------------------------------|
|------13-----------------------------------13------------13-----15------------|
|-------------14-----12-----10-----9/10---5------5-14---5------7------7-12/14--|
|----7------7------7------7------7------3------3------3------5------5----------|
|--5------5------5------5------5-----------------------------------------------|
|------------------------------------------------------------------------------|

|----------------------------------------------------------------------|
|------13-----------------------------------13-------------------------|
|-------------14-----12-----10-----9/10---5------5-14---5--------------|
|----7------7------7------7------7------3------3------3----5-5-5-5-5---|
|--5------5------5------5------5---------------------------3-3-3-3-3---|
|----------------------------------------------------------------------|

riff

|-------------------------------------------------------10-------------|
|--------13------------------------------13----------------------------|
|--9-10-----10-------------------7-9-10-----10-9-7-9-10-----9-10-9-----|
|------------------------------------------------------------------10--|
|---------------0-0-0--0-0--0-0----------------------------------------|
|---------------0-0-0--0-0--0-0----------------------------------------|

|-------------------------------------------------------10-------10----|
|--------13------------------------------13----------------------------|
|--9-10-----10-------------------7-9-10-----10-9-7-9-10-----9-10-------|
|----------------------------------------------------------------------|
|---------------0-0-0--0-0--0-0----------------------------------------|
|---------------0-0-0--0-0--0-0----------------------------------------|

|-------------------------------------------------------10-------------|
|--------13------------------------------13----------------------------|
|--9-10-----10-------------------7-9-10-----10-9-7-9-10-----9-10-9-----|
|------------------------------------------------------------------10--|
|---------------0-0-0--0-0--0-0----------------------------------------|
|---------------0-0-0--0-0--0-0----------------------------------------|

|------------------------------------------------------------------------|
|--------13------------------------------13------------------------------|
|--9-10-----10-------------------7-9-10-----10-9-7--7-7--9-9-9-10-10-10--|
|------------------------------------------------------------------------|
|---------------0-0-0--0-0--0-0------------------------------------------|
|---------------0-0-0--0-0--0-0------------------------------------------|

chours

|------------------------------------------------------------------------------------------------|
|------------------------------------------------------------------------------------------------|
|--14-14-14-14-14-14-14-14-14-14-14-14-14-14-14-14-17-17-17-17-17-17-17-19-19-19-19-19-19-19-19--|
|------------------------------------------------------------------------------------------------|
|--12-12-12-12-12-12-12-12-12-12-12-12-12-12-12-12-15-15-15-15-15-15-15-17-17-17-17-17-17-17-17--|
|------------------------------------------------------------------------------------------------|

|--------------------------------------------------------------|
|--------------------------------------------------------------|
|--12-12-12-12-12-12-12-12-10-10-10-10-10-10-10-10-10-10-10-10-|
|--------------------------------------------------------------|
|--10-10-10-10-10-10-10-10-8--8--8--8--8--8--8--8--8--8--8--8--|
|--------------------------------------------------------------|

|--------------------------------------------------------------|
|--------------------------------------------------------------|
|--12-12-12-12-12-12-12-12-10-10-10-10-10-10-10-10-10-10-10-10-|
|--------------------------------------------------------------|
|--10-10-10-10-10-10-10-10-8--8--8--8--8--8--8--8--8--8--8--8--|
|--------------------------------------------------------------|

|-----------------------------------------------------------------------------|
|-----------------------------------------------------------------------------|
|-----------------8-7---------------------------------------------------------|
|---------------------8-------------------------------------------------------|
|--0--0-0--0-------------0--0-0--0------0-0------0--0-0--0------1--0--0-0--0--|
|--0--0-0--0-------------0--0-0--0------0-0------0--0-0--0------1--0--0-0--0--|

riff 2

|-----------------------------------------------------------------------------------|
|-----------------------------------------------------------------------------------|
|-----------------------------------------------------------------------------------|
|----------------------------------------------------------------------10-10-10-10--|
|--8-7-------------------------------10-8-7--------------------12--10---------------|
|------8-10--12-8--10-8--12-8--10-8---------10--12-8--10-8--8-----------------------|
|-----------------------------------------------------------------------------------|

|----------------------------------------------------------------------------|
|----------------------------------------------------------------------------|
|----------------------------------------------------------------------------|
|--------------------------10-8-7--------------------------------------------|
|--12-8--10-8--12-8--10-8---------8--12-8--10-8--------10-10-10-10-10-10-10--|
|------------------------------------------------x--x--10-10-10-10-10-10-10--|

verse 2 (hey hey hey hey... i howld the moon)

tapping
|----------------------------------------------------------------------|
|------13-----------------------------------13-------------------------|
|-------------14-----12-----10-----9/10---5------5-14---5--------------|
|----7------7------7------7------7------3------3------3----5-5-5-5-5---|
|--5------5------5------5------5---------------------------3-3-3-3-3---|
|----------------------------------------------------------------------|

|-------------------------------------------------------10-------------|
|--------13------------------------------13----------------------------|
|--9-10-----10-------------------7-9-10-----10-9-7-9-10-----9-10-9-----|
|------------------------------------------------------------------10--|
|---------------0-0-0--0-0--0-0----------------------------------------|
|---------------0-0-0--0-0--0-0----------------------------------------|

|-------------------------------------------------------10-------10----|
|--------13------------------------------13----------------------------|
|--9-10-----10-------------------7-9-10-----10-9-7-9-10-----9-10-------|
|----------------------------------------------------------------------|
|---------------0-0-0--0-0--0-0----------------------------------------|
|---------------0-0-0--0-0--0-0----------------------------------------|

tapping
|------------------------------------------------------------------------------|
|------13-----------------------------------13------------18-----17-----13/15--|
|-------------14-----12-----10-----9/10---5------5-14---5------7------7--------|
|----7------7------7------7------7------3------3------3------5------5----------|
|--5------5------5------5------5-----------------------------------------------|
|------------------------------------------------------------------------------|

mooooovieeeeees yay... (just spam 0 xD)

|----------------------------------------------------------------------------------|
|------------------------------13------------------------------13---------15-------|
|---------------------------------10-9-10-------------------------10-9-10----10-9--|
|----------------------------------------------------------------------------------|
|----------------------------------------------------------------------------------|
|--0----0-0-0--0--0--0--0--0---------------0--0-0-0---0-0-0-0----------------------|

|--------------------------------------------------------------------|
|--------------------------------------------------------------------|
|--------------------------------------------------------------------|
|--------------------------------------------------------------------|
|--------------------------------------------------------------------|
|--0--0-0--0--x-x-x-0--0-0--0--0-0--0--0-0--0--x-x-x-0--0-0--0--0-0--|

|-------------------------------------------------|
|-------------------------------------------------|
|-------10--9-9------------------9-9-9--10-10-10--|
|-x-x-x---------10-10--12-12--12------------------|
|-------------------------------------------------|
|-------------------------------------------------|

Chours (play x2)

|------------------------------------------------------------------------------------------------|
|------------------------------------------------------------------------------------------------|
|--14-14-14-14-14-14-14-14-14-14-14-14-14-14-14-14-17-17-17-17-17-17-17-19-19-19-19-19-19-19-19--|
|------------------------------------------------------------------------------------------------|
|--12-12-12-12-12-12-12-12-12-12-12-12-12-12-12-12-15-15-15-15-15-15-15-17-17-17-17-17-17-17-17--|
|------------------------------------------------------------------------------------------------|

|--------------------------------------------------------------|
|--------------------------------------------------------------|
|--12-12-12-12-12-12-12-12-10-10-10-10-10-10-10-10-10-10-10-10-|
|--------------------------------------------------------------|
|--10-10-10-10-10-10-10-10-8--8--8--8--8--8--8--8--8--8--8--8--|
|--------------------------------------------------------------|

|--------------------------------------------------------------|
|--------------------------------------------------------------|
|--12-12-12-12-12-12-12-12-10-10-10-10-10-10-10-10-10-10-10-10-|
|--------------------------------------------------------------|
|--10-10-10-10-10-10-10-10-8--8--8--8--8--8--8--8--8--8--8--8--|
|--------------------------------------------------------------|

in the end of last time play this =
|--------------------------------------------------------------|
|--------------------------------------------------------------|
|--12-12-12-12-12-12-12-12-17-17-17-17-17-17-17-17-17-17-17-17-|
|--------------------------------------------------------------|
|--10-10-10-10-10-10-10-10-15-15-15-15-15-15-15-15-15-15-15-15-|
|--------------------------------------------------------------|

|-----------------------------------|
|-----------------------------------|
|-----------------------------------|
|--7------------------------------->|
|--7------------------------------->|
|--7------------------------------->|


this is the most boring part in the song xD

|-----------------------------------|
|-----------------------------------|
|------7--9--------7-------7--------|   X3
|-----------10--------9-10----9-10--|
|--x-x---------x-x------------------|
|-----------------------------------|

|------------------------------------|
|-------------------------------8----|
|------7--9--------7--------------9--|
|-----------10-----------10----------|
|--x-x---------x-x---x-x----x-x------|
|------------------------------------|

|-----------------------------------|
|-----------------------------------|
|------7--9--------7-------7--------|   X3
|-----------10--------9-10----9-10--|
|--x-x---------x-x------------------|
|-----------------------------------|

|------------------------------------|
|-------------------------------8----|
|------7--9--------7--------------9--|
|-----------10-----------10----------|
|--x-x---------x-x---x-x----x-x------|
|------------------------------------|

|-----------------------------------|
|-----------------------------------|
|------7--9--------7-------7--------|   X3
|-----------10--------9-10----9-10--|
|--x-x---------x-x------------------|
|-----------------------------------|

|------------------------------------|
|-------------------------------8----|
|------7--9--------7--------------9--|
|-----------10-----------10----------|
|--x-x---------x-x---x-x----x-x------|
|------------------------------------|

|-----------------------------------|
|-----------------------------------|
|------7--9--------7-------7--------|   X3
|-----------10--------9-10----9-10--|
|--x-x---------x-x------------------|
|-----------------------------------|

|----------------------------|
|----------------------------|
|------7--9--------7---------|
|-----------10-----------10--|
|--x-x---------x-x---x-x-----|
|----------------------------|

and same shiit again ^^
|-----------------------------------|
|-----------------------------------|
|------7--9--------7-------7--------|   X3
|-----------10--------9-10----9-10--|
|--x-x---------x-x------------------|
|-----------------------------------|

|------------------------------------|
|-------------------------------8----|
|------7--9--------7--------------9--|
|-----------10-----------10----------|
|--x-x---------x-x---x-x----x-x------|
|------------------------------------|

|-----------------------------------|
|-----------------------------------|
|------7--9--------7-------7--------|   X3
|-----------10--------9-10----9-10--|
|--x-x---------x-x------------------|
|-----------------------------------|

|------------------------------------|
|-------------------------------8----|
|------7--9--------7--------------9--|
|-----------10-----------10----------|
|--x-x---------x-x---x-x----x-x------|
|------------------------------------|

|-----------------------------------|
|-----------------------------------|
|------7--9--------7-------7--------|   X3
|-----------10--------9-10----9-10--|
|--x-x---------x-x------------------|
|-----------------------------------|

|------------------------------------|
|-------------------------------8----|
|------7--9--------7--------------9--|
|-----------10-----------10----------|
|--x-x---------x-x---x-x----x-x------|
|------------------------------------|

|-----------------------------------|
|-----------------------------------|
|------7--9--------7-------7--------|   X3
|-----------10--------9-10----9-10--|
|--x-x---------x-x------------------|
|-----------------------------------|

|------------------------------------|
|------------------------------------|
|------7--9--------7-----------------|
|-----------10-----------10----------|
|--x-x---------x-x---x-x------7--7---|
|-----------------------------7--7---|

END!
Добавлено: 12.05.2012
Другие материалы по этой песне:

Страница создана 04.05.2012
http://primanota.ru/adept/shark-shark-shark-chords.htm
Привет, Гость.
Предлагаем пройти революционный курс по гитаре.
Подарок от PrimaNota.Ru, забирай!