PrimaNota.ru - самый крупный в мире бесплатный архив песенных текстов, аккордов, табулатур и нот


Adept - At Worlds End - текст песни, таба, видео

Регистрация Запомнить меня
Войти через:  Facebook Google Twitter Vk Yandex Mail.ru

Adept - At Worlds End - текст песни, таба, видео

Печатать
Просмотров: 417
b=bend
<>=pinch harmonic
p=pull off
h=hammer on
t=tremolo pick



0:00
|----------------------------------------------------------------------|
|----------------------------------------------------------------------|
|----------------------------------------------------------------------|
|----------------------------------------------------------------------|
|--0-------------------------------------------------------------------|
|--0---0-0-0-0-0-0-0-0-0-0-0---0---0---0---000--000--------------------|
               


|----------------------------------------------------------------------|
|----------------------------------------------------------------------|
|----------------------------------------------------------------------|
|----------------------------------------------------------------------|
|----------------------------------------------------------------------|
|------0-0-0-0-0-0-0-0-0-0-0---0---0---0---0---0---0---<5>b------------|
               


|----------------------------------------------------------------------|
|----------------------------------------------------------------------|
|----------------------------------------------------------------------|
|----------------------------------------------------------------------|
|----------------------------------------------------------------------|
|------0-0-0-0-0-0-0-0-0-0-0---0---0---0---000--000--------------------|
               


|----------------------------------------------------------------------|
|----------------------------------------------------------------------|
|----------------------------------------------------------------------|
|----------------------------------------------------------------------|
|------------------------------0---0---0---/12-------------------------|
|------0-0-0-0-0-0-0-0-0-0-0---0---0---0---/12-------------------------|
               

0:15
|-----13h17p13------13h17p13------13h17p13------13h17p13-------------|
|-------------15--15--------15--15--------15--15--------15-----------|
|---------------14------------14------------14------------14---------|
|-----------------------------------------------------------15-------|
|-------------------------------------------------------------17-----|
|--------------------------------------------------------------------|


|----------------------------------------------------------------------|
|----------------------------------------------------------------------|
|----------------------------------------------------------------------|
|----------------------------------------------------------------------|
|----------------------------------------------------------------------|
|------0-0-0-0-0-0-0-0-0-0-0---0---0---0---000--000--------------------|
              


|----------------------------------------------------------------------|
|----------------------------------------------------------------------|
|----------------------------------------------------------------------|
|----------------------------------------------------------------------|
|----------------------------------------------------------------1-1---|
|----0-0-0-0-0-0-0-0-0-0-0---0---0---0---0---0---0---0---0---0---1-1---|
           


0:28
|----10--10h12--12h13--12--13p12p10-----12--12h13p12/10--------------|
|--------------------------------------------------------------------|
|--------------------------------------------------------------------|
|--------------------------------------------------------------------|
|--------------------------------------------------------------------|
|--------------------------------------------------------------------|


0:34
|----10--10h12--12h13--12--13p12p10-----12--12h13p12/10---12h13--13/15/13p12--|
|-----------------------------------------------------------------------------|
|-----------------------------------------------------------------------------|
|-----------------------------------------------------------------------------|
|-----------------------------------------------------------------------------|
|-----------------------------------------------------------------------------|


|----10--10h12--12h13--12--13p12p10-----12--12h13p12/10---12h13--13/15 15-15-----|
|--------------------------------------------------------------------------------|
|--------------------------------------------------------------------------------|
|--------------------------------------------------------------------------------|
|--------------------------------------------------------------------------------|
|--------------------------------------------------------------------------------|

0:44
|--------------------------------------------------------------------|
|--------------------------------------------------------6-6-6-6-----|
|-------------------------7-7-7-7------------------------9-9-9-9-----|
|-------------------------7-7-7-7------------------------------------|
|-------------------------5-5-5-5------------------------------------|
|----0--3p0--5p0--0-3p0-------------0--3p0--5p0--0-------------------|


|--------------------------------------------------------------------|
|--------------------------------------------------------6-6-6-6-----|
|-------------------------7-7-7-7------------------------9-9-9-9-----|
|-------------------------7-7-7-7------------------------------------|
|-------------------------5-5-5-5------------------------------------|
|----0--3p0--5p0--0-3p0-------------0--3p0--5p0--0-------------------|

|--------------------------------------------------------------------|
|----6-6-6-6-6-6-6-6-6-6-6-6-6-6-6-6---------------------------------|
|----9-9-9-9-9-9-9-9-9-9-9-9-9-9-9-9---------------------------------|
|--------------------------------------------------------------------|
|--------------------------------------------------------------------|
|--------------------------------------------------------------------|

0:59
|--------------------------------------------------------------------|
|--------------------------------------------------------------------|
|--------------------------------------------------------------------|
|--------------------------------------------------------------------|
|--0-0-0-0-0-0----0-0----0000----0-0-0-0-0-0----0-0-0----0-0-0-------|
|--0-0-0-0-0-0----0-0----0000----0-0-0-0-0-0----0-0-0----0-0-0-------|

|--------------------------------------------------------------------|
|--------------------------------------------------------------------|
|--------------------------------------------------------------------|
|--------------------------------------------------------------------|
|--0-0-0-0-0-0----0-0----0000----0-0-0-0-0-0----0-0-0----0-0-0-------|
|--0-0-0-0-0-0----0-0----0000----0-0-0-0-0-0----0-0-0----0-0-0-------|

1:09
|----10--10h12--12h13--12--13p12p10-----12--12h13p12/10---12h13--13/15/13p12--|
|-----------------------------------------------------------------------------|
|-----------------------------------------------------------------------------|
|-----------------------------------------------------------------------------|
|-----------------------------------------------------------------------------|
|-----------------------------------------------------------------------------|


|----10--10h12--12h13--12--13p12p10-----12--12h13p12/10--------------|
|--------------------------------------------------------------------|
|--------------------------------------------------------------------|
|--------------------------------------------------------------------|
|--------------------------------------------------------------------|
|--------------------------------------------------------------------|

1:20
|--------------------------------------------------------------------|
|--------------------------------------------------------6-6-6-6-----|
|-------------------------7-7-7-7------------------------9-9-9-9-----|
|-------------------------7-7-7-7------------------------------------|
|-------------------------5-5-5-5------------------------------------|
|----0--3p0--5p0--0-3p0-------------0--3p0--5p0--0-------------------|


|--------------------------------------------------------------------|
|--------------------------------------------------------6-6-6-6-----|
|-------------------------7-7-7-7------------------------9-9-9-9-----|
|-------------------------7-7-7-7------------------------------------|
|-------------------------5-5-5-5------------------------------------|
|----0--3p0--5p0--0-3p0-------------0--3p0--5p0--0-------------------|


1:29
|--------------------------------------------------------------------|
|--------------------------------------------------------------------|
|--------------------------------------------------------------------|
|--------------------------------------------------------------------|
|----0-0-0-0-0-0----0-0----0000----00000-0-0-------------------------|
|----0-0-0-0-0-0----0-0----0000----00000-0-0-------------------------|
                 (|eft)                  (right)        (|eft)             (right)

1:35
|--------------------------------------------------------------------|
|--------------------------------------------------------------------|
|--------------------------------------------------------------------|
|--------------------------------------------------------------------|
|--0-0-0-0-0-0----0-0----0000----0-0-0-0-0-0----0-0-0----0-0-0-------|
|--0-0-0-0-0-0----0-0----0000----0-0-0-0-0-0----0-0-0----0-0-0-------|

|--------------------------------------------------------------------|
|--------------------------------------------------------------------|
|--------------------------------------------------------------------|
|--------------------------------------------------------------------|
|--0-0-0-0-0-0----0-0----0000----0-0-0-0-0-0----0-0-0----0-0-0-------|
|--0-0-0-0-0-0----0-0----0000----0-0-0-0-0-0----0-0-0----0-0-0-------|


1:45
|--------------------------------------------------------------------|
|--------------------------------------------------------------------|
|--------------------------------------------------------------------|
|--------------------------------------------------------------------|
|--0-0-0-0-0-0-------------------0-0-0-0-0-0-------------------------|
|--0-0-0-0-0-0-------------------0-0-0-0-0-0-------------------------|


|--------------------------------------------------------------------|
|--------------------------------------------------------------------|
|--------------------------------------------------------------------|
|--------------------------------------------------------------------|
|--0-0-0-0-0-0-------------------0-0-0-0-0-0-0-0-0-------------------|
|--0-0-0-0-0-0-------------------0-0-0-0-0-0-0-0-0-------------------|


1:55
|--------------------------------------------------------------------|
|--------------------------------------------------------------------|
|--------------------------------------------------------------------|
|--------------------------------------------------------------------|
|--0--0-0-0-0-0-0-0-0-0-0-5h7p5-0--0-0-0-0-0-0-0-0-0--5p0--7--3p0----|
|--0--0-0-0-0-0-0-0-0-0-0-5h7p5-0--0-0-0-0-0-0-0-0-0--------------0--|


|--------------------------------------------------------------------|
|--------------------------------------------------------------------|
|--------------------------------------------------------------------|
|--------------------------------------------------------------------|
|--0--0-0-0-0-0-0-0-0-0-0-5h7p5-0--0-0-0-0-0-0-0-0-0--3-3-3-5h7p5----|
|--0--0-0-0-0-0-0-0-0-0-0-5h7p5-0--0-0-0-0-0-0-0-0-0--3-3-3-5h7p5----|


2:06
|--------------------------------------------------------------------|
|--------------------------------------------------------------------|
|--------------------------------------------------------------------|
|--------------------------------------------------------------------|
|--0--0-0-0-0---000---0-0---0-0-0-0-0-0--5p0--7--3p0-----------------|
|--0--0-0-0-0---000---0-0---0-0-0-0-0-0--------------0---------------|


|--------------------------------------------------------------------|
|--------------------------------------------------------------------|
|--------------------------------------------------------------------|
|--------------------------------------------------------------------|
|--0--0-0-0-0---000---0-0---0-0-0-0-0-0--3-3-3-5h7p5-----------------|
|--0--0-0-0-0---000---0-0---0-0-0-0-0-0--3-3-3-5h7p5-----------------|


|--------------------------------------------------------------------|
|--------------------------------------------------------------------|
|--------------------------------------------------------------------|
|--------------------------------------------------------------------|
|--0--0-0-0-0---000---0-0---0-0-0-0-0-0--5p0--7--3p0-----------------|
|--0--0-0-0-0---000---0-0---0-0-0-0-0-0--------------0---------------|


|--------------------------------------------------------------------|
|--------------------------------------------------------------------|
|--------------------------------------------------------------------|
|--------------------------------------------------------------------|
|--0--0-0-0-0---000---0-0---0-0-0-0-0-0--3-3-3-5h7p5-----------------|
|--0--0-0-0-0---000---0-0---0-0-0-0-0-0--3-3-3-5h7p5-----------------|


2:27
|--------------------------------------------------------------------|
|--------------------------------------------------------------------|
|--------------------------------------------------------------------|
|---3-3-3-3-3-3-3-3-3-3-3-5-5-5-5-5-5-5-5-5-5-5-3-3-5h7p5------------|
|---3-3-3-3-3-3-3-3-3-3-3-5-5-5-5-5-5-5-5-5-5-5-3-3-5h7p5------------|
|---3-3-3-3-3-3-3-3-3-3-3-5-5-5-5-5-5-5-5-5-5-5-3-3-5h7p5------------|



2:31
|----10--10h12--12h13--12--13p12p10-----12--12h13p12/10---12h13--13/15/13p12--|
|-----------------------------------------------------------------------------|
|-----------------------------------------------------------------------------|
|-----------------------------------------------------------------------------|
|-----------------------------------------------------------------------------|
|-----------------------------------------------------------------------------|


2:37
|--------------------------------------------------------------------|
|--------------------------------------------------------------------|
|--------------------------------------------------------------------|
|--------------------------------------------------------------------|
|--0-0-0-0-0-0----0-0----0000----0-0-0-0-0-0----0-0-0----0-0-0-------|
|--0-0-0-0-0-0----0-0----0000----0-0-0-0-0-0----0-0-0----0-0-0-------|

|--------------------------------------------------------------------|
|--------------------------------------------------------------------|
|--------------------------------------------------------------------|
|--------------------------------------------------------------------|
|--0-0-0-0-0-0----0-0----0000----0-0-0-0-0-0----0-0-0----0-0-0-------|
|--0-0-0-0-0-0----0-0----0000----0-0-0-0-0-0----0-0-0----0-0-0-------|



2:47
|----10--10h12--12h13--12--13p12p10-----12--12h13p12/10---12h13--13/15/13p12--|
|-----------------------------------------------------------------------------|
|-----------------------------------------------------------------------------|
|-----------------------------------------------------------------------------|
|-----------------------------------------------------------------------------|
|-----------------------------------------------------------------------------|


|----10--10h12--12h13--12--13p12p10-----12--12h13p12/10--12h13p12/10---------------|
|----------------------------------------------------------------------------------|
|--------------------------------------------------------------------12-10-9-------|
|----------------------------------------------------------------------------10----|
|-------------------------------------------------------------------------------0--|
|-------------------------------------------------------------------------------0--|



3:04
|--------------------------------------------------------------------|
|--------------------------------------------------------------------|
|----------------------------------9h10p9----12-10-9-----------------|
|----8-10-10-10-10-10-10-10-10------------10---------10--------------|
|----8-10-10-10-10-10-10-10-10---------------------------------------|
|----8-10-10-10-10-10-10-10-10---------------------------------------|


|--------------------------------------------------------------------|
|--------------------------------------------------------------------|
|-----------------------------------<9h10p9>-------------------------|
|---------------------------------------------10-8-7-----------------|
|---0------------------------------------------------10-8------------|
|---0--0-0-000-0---0-0-000-0---0-0-----------------------------------|


|--------------------------------------------------------------------|
|--------------------------------------------------------------------|
|-----------------------------------<9h10p9>-------------------------|
|---------------------------------------------10-8-7-----------------|
|---/------------------------------------------------10-8------------|
|---/--0-0-000-0---0-0-000-0---0-0-----------------------------------|


|----------------------------------------------------------------------|
|----------------------------------------------------------------------|
|-----------------------------------<9h10p9>---------------------------|
|---------------------------------------------10-8-7-------------------|
|---/--0-0--1-1-1------------------------------------10-8--------------|
|---/--0-0--1-1-1---0-0-000-0---0-0------------------------------------|


|--------------------------------------------------------------------|
|--------------------------------------------------------------------|
|-----------------------------------<9h10p9>-------------------------|
|---------------------------------------------10-8-7-----------------|
|---/------------------------------------------------10-8------------|
|---/--0-0-000-0---0-0-000-0---0-0-----------------------------------|



3:28
|--------------------------------------------------------------------|
|--------------------------------------------------------------------|
|-------------------9-9-9-9-9-9-9-9-9/12-12-12-12-12-12-12-----------|
|---8-8-8-8-8-8-8-8-x-x-x-x-x-x-x-x-x-x--x--x--x--x--x--x------------|
|---8-8-8-8-8-8-8-8-7-7-7-7-7-7-7-7-7/10-10-10-10-10-10-10-----------|
|---8-8-8-8-8-8-8-8--------------------------------------------------|


3:32
|--------------------------------------------------------------------|
|--------------------------------------------------------------------|
|----9h10p9----12-10-9------9h10p9----12-10-9------------------------|
|-----------10---------10----------10---------10---------------------|
|--------------------------------------------------------------------|
|--------------------------------------------------------------------|


|--------------------------------------------------------------------|
|--------------------------------------------------------------------|
|----9h10p9----12-10-9------9h10p9----12-10-9------------------------|
|-----------10---------10----------10---------10---------------------|
|--------------------------------------------------------------------|
|--------------------------------------------------------------------|
(continues in fadeout)



3:38
|----13t--12t--17t--15t--10t--12t----------------------------------------|
|------------------------------------------------------------------------|
|------------------------------------------------------------------------|
|------------------------------------------------------------------------|
|------------------------------------------------------------------------|
|------------------------------------------------------------------------|
(fades out after rest of the song)
Добавлено: 12.06.2012
Другие материалы по этой песне:
  • Аккорды и текст

Страница создана 12.06.2012
http://primanota.ru/adept/at-worlds-end-chords.htm
Привет, Гость.
Предлагаем пройти революционный курс по гитаре.
Подарок от PrimaNota.Ru, забирай!