PrimaNota.ru - самый крупный в мире бесплатный архив песенных текстов, аккордов, табулатур и нот


Adept - The Ballad Of Planet Earth - текст песни, таба, видео

Регистрация Запомнить меня
Войти через:  Facebook Google Twitter Vk Yandex Mail.ru

Adept - The Ballad Of Planet Earth - текст песни, таба, видео

Печатать
Просмотров: 513
Уроки эстрадного вокала в Санкт-Петербурге
tuning- drop D


(intro - acoustic) "the water is shallow...."
e|------------------------------------------------------------------------|
B|------------------------------------------------------------------------|
G|------5~----------------------------------------------------------------|
D|--3~--5~--8~---10~---0~-------------------------------------------------|
A|--3~--3~--8~---10~---0~-------------------------------------------------|
D|--3~------8~---10~---0~-------------------------------------------------|


"theres something in the wind...."
e|------------------------------------------------------------------------|
B|------------------------------------------------------------------------|
G|------------------------------------------------------------------------|
D|--0~--3~--0~--0~--8~--10~-----------------------------------------------|
A|--0~--3~--0~--0~--8~--10~-----------------------------------------------|
D|--0~--3~--0~--0~--8~--10~-----------------------------------------------|


"fire!!" (distortion)
e|------------------------------------------------------------------------|
B|------------------------------------------------------------------------|
G|---------5--------------------------------------------------------------|
D|--3------5-x12---8-----10-----------------------------------------------|
A|--3-x12--3-------8-x6--10-x6--------------------------------------------|
D|--3--------------8-----10-----------------------------------------------|

"choking on the ashes....."
e|------------------------------------------------------------------------|
B|------------------------------------------------------------------------|
G|------------------------------------------------------------------------|
D|0-0-0-0---0-0-0-0-0-0----3------0-0-0-0--x0x00xx---0----8------10-------|
A|0-0-0-0---0-0-0-0-0-0----3-x12--0-0-0-0--x0x00xx---0-x7-8-x7---10-x16---|
D|0-0-0-0---0-0-0-0-0-0----3------0-0-0-0--x0x00xx---0----8------10-------|

"turn away...."
e|------------------------------------------------------------------------|
B|------------------------------------------------------------------------|
G|------------------------------------------------------------------------|
D|--3-------10------8-----10----------------------------------------------|
A|--3-x12---10-x12--8-x6--10-x6-------------------------------------------|
D|--3-------10------8-----10----------------------------------------------|

"from the ashes...."
e|------------------------------------------------------------------------|
B|------------------------------------------------------------------------|
G|------------------------------------------------------------------------|
D|0-0-0-0---0-0-0-0-0-0---3------0-0-0-0--x0x00xx---0----8------10----0~--|
A|0-0-0-0---0-0-0-0-0-0---3-x12--0-0-0-0--x0x00xx---0x7--8x7----10x7--0~--|
D|0-0-0-0---0-0-0-0-0-0---3------0-0-0-0--x0x00xx---0----8------10----0~--|
Добавлено: 24.04.2012
Другие материалы по этой песне:

Страница создана 27.02.2012
http://primanota.ru/adept/the-ballad-of-planet-earth-chords.htm
Привет, Гость.
Предлагаем пройти революционный курс по гитаре.
Подарок от PrimaNota.Ru, забирай!