PrimaNota.ru - самый крупный в мире бесплатный архив песенных текстов, аккордов, табулатур и нот


Adelitas Way - Sick - текст песни, таба, видео

Регистрация Запомнить меня
Войти через:  Facebook Google Twitter Vk Yandex Mail.ru

Adelitas Way - Sick - текст песни, таба, видео

Печатать
Просмотров: 867
Уроки эстрадного вокала в Санкт-Петербурге
Авторы: Rick DeJesus, Marti Frederiksen

Not 100% accurate, but close.

UPDATE-4/29/11
   -More of the intro added
   -Corrections
   -Better details

KEY:
 / or \ slide
 h-hammer on
 p-pull off
 x-muted
 b-bend the string
 ~ hold note out

NOTE: I've written this tab out in a way that there are BOTH guitar 1 and guitar 2 parts 
mixed in. There are 2 guitarists playing in this song, and I mixed both of their parts 
in together. A little bit of lead, and rhythm. =)


Intro

|--------5----5-------3----3------------1---1--------0---0------|
|------3----3----3--3----3----3-------3---3----3---3---3--------|
|---------------------------------------------------------------|
|---------------------------------------------------------------|
|-0-0----------------------------0-0----------------------------|
|-0-0----------------------------0-0----------------------------|

|---------------------------------------------------------------|
|---------------------------------------------------------------|
|---------------------------------------------------------------|
|-5555/8888/10101010\3333---------------------------------------|
|-5555/8888/10101010\3333---------------------------------------|
|-5555/8888/10101010\3333---------------------------------------| x3

|---------------------------------------------------------------|
|---------------------------------------------------------------|
|---------------------------------------------------------------|
|-5~-------------3h5p3-2----------------------------------------|
|-5~-------------3h5p3-2----------------------------------------|
|-5~-------------3h5p3-2----------------------------------------|

Verse 1

(I'm so sick of me, being sick of you...)
|---------------------------------------------------------------|
|---------------------------------------------------------------|
|---------------------------------------------------------------|
|-0-0---xx-----0-0---xx-----0-0---xx-5p3p0-5p3p0--3----0-0----xx|
|-0-0---xx-----0-0---xx-----0-0---xx-5p3p0-5p3p0--3----0-0----xx|
|-0-0---xx-----0-0---xx-----0-0---xx-5p3p0-5p3p0--3----0-0----xx|


|---------------------------------------------------------------|
|---------------------------------------------------------------|
|---------------------------------------------------------------|
|-0-0---xx-----0-0---xx-----0-0---xx-5p3p0-5p3p0--3x------------|
|-0-0---xx-----0-0---xx-----0-0---xx-5p3p0-5p3p0--3x------------|
|-0-0---xx-----0-0---xx-----0-0---xx-5p3p0-5p3p0--3x------------|

Chorus

(If you're sick like me, there's no stopping now...)
|---------------------------------------------------------------|
|---------------------------------------------------------------|
|---------------------------------------------------------------|
|-00000000-33333333-88888888-55555555---------------------------|
|-00000000-33333333-88888888-55555555---------------------------|
|-00000000-33333333-88888888-55555555---------------------------| x2

|---------------------------------------------------------------|
|---------------------------------------------------------------|
|---------------------------------------------------------------|
|-5555/8888/10101010\3333---------------------------------------|
|-5555/8888/10101010\3333---------------------------------------|
|-5555/8888/10101010\3333---------------------------------------| x3

|---------------------------------------------------------------|
|---------------------------------------------------------------|
|---------------------------------------------------------------|
|-5~-------------3h5p3-2----------------------------------------|
|-5~-------------3h5p3-2----------------------------------------|
|-5~-------------3h5p3-2----------------------------------------|

Verse 2

|---------------------------------------------------------------|
|---------------------------------------------------------------|
|---------------------------------------------------------------|
|-0-0---xx-----0-0---xx-----0-0---xx-5p3p0-5p3p0--3---0-0----xx-|
|-0-0---xx-----0-0---xx-----0-0---xx-5p3p0-5p3p0--3---0-0----xx-|
|-0-0---xx-----0-0---xx-----0-0---xx-5p3p0-5p3p0--3---0-0----xx-|


|---------------------------------------------------------------|
|---------------------------------------------------------------|
|---------------------------------------------------------------|
|-0-0---xx-----0-0---xx-----0-0---xx-5p3p0-5p3p0--3-------------|
|-0-0---xx-----0-0---xx-----0-0---xx-5p3p0-5p3p0--3-------------|
|-0-0---xx-----0-0---xx-----0-0---xx-5p3p0-5p3p0--3-------------|

|---------------------------------------------------------------|
|---------------------------------------------------------------|
|---------------------------------------------------------------|
|-5-5-5b-5b-5b-5b-5b-5b-----------------------------------------|
|---------------------------------------------------------------|
|---------------------------------------------------------------|

Chorus

|---------------------------------------------------------------|
|---------------------------------------------------------------|
|---------------------------------------------------------------|
|-00000000-33333333-88888888-55555555---------------------------|
|-00000000-33333333-88888888-55555555---------------------------|
|-00000000-33333333-88888888-55555555---------------------------| x2

Bridge

|---------------------------------------------------------------|
|---------------------------------------------------------------|
|---------------------------------------------------------------|
|-8888888888888888-5555555555555555-----------------------------|
|-8888888888888888-5555555555555555-----------------------------|
|-8888888888888888-5555555555555555-----------------------------| x2

|---------------------------------------------------------------|
|---------------------------------------------------------------|
|---------------------------------------------------------------|
|-------------------------------------------------5~------------|
|-----0-0-------------------------0-0-------------5~------------|
|-----0-0-------------------------0-0-------------5~------------|

Verse 3

|---------------------------------------------------------------|
|---------------------------------------------------------------|
|---------------------------------------------------------------|
|-00000000-33333333-88888888-55555555---------------------------|
|-00000000-33333333-88888888-55555555---------------------------|
|-00000000-33333333-88888888-55555555---------------------------|

|---------------------------------------------------------------|
|---------------------------------------------------------------|
|---------------------------------------------------------------|
|-00000000-33333333-88888888---5555-3---55-3---5555-------------|
|-00000000-33333333-88888888---5555-3---55-3---5555-------------|
|-00000000-33333333-88888888---5555-3---55-3---5555-------------|

|---------------------------------------------------------------|
|---------------------------------------------------------------|
|---------------------------------------------------------------|
|-00000000-33333333-88888888-55555555---------------------------|
|-00000000-33333333-88888888-55555555---------------------------|
|-00000000-33333333-88888888-55555555---------------------------|

|---------------------------------------------------------------|
|---------------------------------------------------------------|
|---------------------------------------------------------------|
|-00000000-33333333-88888888--555555---555555-------------------|
|-00000000-33333333-88888888--555555---555555-------------------|
|-00000000-33333333-88888888--555555---555555-------------------|

Outro

|---------------------------------------------------------------|
|---------------------------------------------------------------|
|---------------------------------------------------------------|
|-5555/8888/10101010\3333---------------------------------------|
|-5555/8888/10101010\3333---------------------------------------|
|-5555/8888/10101010\3333---------------------------------------| x3

|---------------------------------------------------------------|
|---------------------------------------------------------------|
|---------------------------------------------------------------|
|-5~-----3h5p3-3-2---0--0---------------------------------------|
|-5~-----3h5p3-3-2---0--0---------------------------------------|
|-5~-----3h5p3-3-2---0--0---------------------------------------|
Добавлено: 12.04.2012
Другие материалы по этой песне:
  • Аккорды и текст

Страница создана 13.03.2012
http://primanota.ru/adelitas-way/sick-chords.htm
Привет, Гость.
Предлагаем пройти революционный курс по гитаре.
Подарок от PrimaNota.Ru, забирай!