PrimaNota.ru - самый крупный в мире бесплатный архив песенных текстов, аккордов, табулатур и нот


Adelitas Way - Criticize - текст песни, таба, видео

Регистрация Запомнить меня
Войти через:  Facebook Google Twitter Vk Yandex Mail.ru

Adelitas Way - Criticize - текст песни, таба, видео

Печатать
Просмотров: 327
Авторы: Rick DeJesus, Dave Bassett, Trevor "Tre" Stafford

tuning Drop C (dAFCGC)

DRUMS AND SPECIAL EFFECTS
D|---------------------------------------------------------------|
A|---------------------------------------------------------------|
F|---------------------------------------------------------------|
C|---------------------------------------------------------------|
G|---------------------------------------------------------------|
C|---------------------------------------------------------------|

D|---------------------------------------------------------------|
A|---------------------------------------------------------------|
F|-14-13--7-7/101010\7/101010\-----------------------------------|
C|---------------------------------------------------------------|
G|-12-11--5-5/8-8-8-\5/8-8-8\------------------------------------|
C|---------------------------------------------------------------|

use grace note with slide, execute quick the slides
|---------------------------------------------------------------|
|---------------------------------------------------------------|
|-14/13-13---7--7/101010\7/101010\------------------------------|
|---------------------------------------------------------------|
|-12/11-11---5--5/8-8-8-\5/8-8-8\-------------------------------|
|---------------------------------------------------------------|

bass and guitar pedal effect ?

|---------------------------------------------------------------|
|---------------------------------------------------------------|
|---------------------------------------------------------------|
|-0----------3----5-------0-------3-----5-----------------------|

prechorus
|---------------------------------------------------------------|
|---------------------------------------------------------------|
|---------------------------------------------------------------|
|---3----------------5--------------8---------------------------|
|---3----------------5--------------8---------------------------|
|---3----------------5--------------8---------------------------|

chours

|--------------------------------------|
|--------------------------------------|
|--------------------------------------|
|-00000000-33333333--55555555-8888888--|
|-00000000-33333333--55555555-8888888--|
|-00000000-33333333--55555555-8888888--|

|--------------------------------|
|--------------------------------|
|--------------------------------|
|-00000000-33333333--55555555-8--|
|-00000000-33333333--55555555-8--|
|-00000000-33333333--55555555-8--|

intro


|---------------------------------------------------------------|
|---------------------------------------------------------------|
|-191919-191919-191919-191919---171717/1414---------------------|
|---------------------------------------------------------------|
|-171919-171717-171717-171717---151515/1212---------------------|
|---------------------------------------------------------------|

PRE-CHOURS

choUrs

GUITAR 1             :>GUITAR 2 ONE TONE UP (15º FRET)

|--------------------------------------------------|
|--------------------------------------------------|
|--------------------5/777-7-5-5/777-7-5-----------|
|---0-XXX-X-0XXX-0---------------------------------| 2X
|---0-XXX-X-0XXX-0---3/555-5-3-3/555-5-3-----------|
|---0-XXX-X-0XXX-0---------------------------------|

micro solo
|---------------------------------------------------------------|
|---------------------------------------------------------------|
|-12/14-14-14-17-14-12-14-17-14-12-14-12/14---14B-14B--12/14B16-|
|---------------------------------------------------------------|
|---------------------------------------------------------------|
|---------------------------------------------------------------|

play chours 3x

legend and Keys:

/ =slide
X =dead note
B =bend
Добавлено: 21.07.2013
Другие материалы по этой песне:
  • Аккорды и текст

Страница создана 21.07.2013
http://primanota.ru/adelitas-way/criticize-chords.htm
Привет, Гость.
Предлагаем пройти революционный курс по гитаре.
Подарок от PrimaNota.Ru, забирай!