PrimaNota.ru - самый крупный в мире бесплатный архив песенных текстов, аккордов, табулатур и нот


Adelitas Way - Just A Little Bit - текст песни, таба, видео

Регистрация Запомнить меня
Войти через:  Facebook Google Twitter Vk Yandex Mail.ru

Adelitas Way - Just A Little Bit - текст песни, таба, видео

Печатать
Просмотров: 189
Уроки эстрадного вокала в Санкт-Петербурге
Авторы: Rick DeJesus, Brian Howes

-------------------------------------------------------------------------------
                             Just a Little Bit - Adelitas Way
-------------------------------------------------------------------------------

This is the only tab out there at the moment on this song.
Timing is not perfect, but notes should be correct.


Tabbed by: Messupp

Tuning: E A D G B E (Standard)


                Intro   (0:18)                                                  x2
e|--------------------------------------------------------------------------------------|
B|--------------------------------------------------------------------------------------|
G|--------------------------------------------------------------------------------------|
D|---4--2-2------------4----4--2-2------------4--2-2----------2-2-2-2-4-4-5-5-5---------|
A|---4--2-2------------4----4--2-2------------4--2-2----------2-2-2-2-4-4-5-5-5---------|
E|---2--0-0---8--7--5--2----2--0-0---8-7-5----2--0-0---8-7-5--0-0-0-0-2-2-3-3-3---------|

        
  Verse x17
e|-----------------|
B|-----------------|   U = Up Stroke
G|-----------------|   D = Down Stroke
D|--4-4-4----------|
A|--4-4-4----------|
E|--2-2-2----------|
    U D U


Chorus   x4
e|--------------------------------------------|
B|--------------------------------------------|
G|--------------------------------------------|
D|---9--9--9--9--12-12-12-7-7-7-7-------------|
A|---9--9--9--9--12-12-12-7-7-7-7-------------|
E|---7--7--7--7--10-10-10-5-5-5-5-------------|


Bridge (2:15)
e|-------------------------------------------|
B|-------------------------------------------|
G|-------------------------------------------|
D|-2--5--2-4-----------2-2--5-5--------------|
A|-2--5--2-4-----------2-2--5-5--------------|
E|-0--3--0-2-----------0-0--3-3--------------|

Order:
Intro -- Verse -- Chorus -- Verse -- Chorus -- Solo (untabbed) -- Bridge -- Chorus x3 -- Intro




I will tab out the solo, if people take interest in the tab. 
Please comment and rate.

~Messupp

************************************

| /   slide up
| \   slide down
| h   hammer-on
| p   pull-off
| ~   vibrato
| +   harmonic
| x   Mute note
| b   Bend
| pb  Pre-bend
| br  Bend release
| pbr Pre-bend release
| brb Bend release bend

************************************
Добавлено: 30.10.2013
Другие материалы по этой песне:
  • Аккорды и текст

Страница создана 03.10.2013
http://primanota.ru/adelitas-way/just-a-little-bit-chords.htm
Привет, Гость.
Предлагаем пройти революционный курс по гитаре.
Подарок от PrimaNota.Ru, забирай!