PrimaNota.ru - самый крупный в мире бесплатный архив песенных текстов, аккордов, табулатур и нот


AC/DC - Dogs Of War - таба, бас-таба, видео

Регистрация Запомнить меня
Войти через:  Facebook Google Twitter Vk Yandex Mail.ru

AC/DC - Dogs Of War - таба, бас-таба, видео

Печатать
Просмотров: 387
-------------------------------------------------------------------------------
                             Dogs Of War - AC/DC
-------------------------------------------------------------------------------
Tabbed by: jothunder

Tuning: Standard

Disclaimer: This tab does not contain the guitar solo!

-------------------------------------------------------------------------------
    LEAD GUITAR

INTRO

e|-----------------|
B|-5~~~8~~~7~~~5~~~|
G|-4~~~7~~~7~~~4~~~| Play
D|-----------------|  2x
A|-----------------|
E|-----------------|

e|-0-0--0-0-----------------------|
B|-3-0--3-0-----------------------|
G|--------------------------------| Play
D|--------------------------------|  6x
A|--------------------------------|
E|--------------------------------|


VERSE

e|-----------------|
B|-----------------|
G|-----------------| Play
D|-----------------|  8x
A|---5---------2---|
E|-7---7-5-3-0-0---|

e|---------------|
B|-3---3---------|
G|-0h2-2---------| Play
D|-0---0---------|  3x
A|------------2--|
E|--------5-3-0--|

e|----------------------------------------|
B|-3---3----------------------------------|
G|-0h2-2--4-4-4-4-4-4-4-4-2-2-2-2-2-2-2-2-|
D|-0---0--4-4-4-4-4-4-4-4-2-2-2-2-2-2-2-2-|
A|--------2-2-2-2-2-2-2-2-0-0-0-0-0-0-0-0-|
E|----------------------------------------|


PRE-CHORUS

e|-----------------|
B|-----------------|
G|-----------------| Play
D|---2---2---2---2-|  2x
A|---2---2---2---2-|
E|-0---3---0---3---|


CHORUS

e|---------3-3-3-3-----------------|
B|---------3-3-3-3-3-3-3-3---------|
G|---------0-0-0-0-2-2-2-2-2-2-2-2-| Play
D|-2-2-2-2-0-0-0-0-0-0-0-0-2-2-2-2-|  4x
A|-2-2-2-2-----------------0-0-0-0-|
E|-0-0-0-0-------------------------|

e|-----------------|
B|-----------------|
G|-----------------| Play
D|---2---2---2---2-|  2x
A|---2---2---2---2-|
E|-0---3---0---3---|


VERSE

e|-----------------|
B|-----------------|
G|-----------------| Play
D|-----------------|  4x
A|---5---------2---|
E|-7---7-5-3-0-0---|

e|---------------|
B|-3---3---------|
G|-0h2-2---------| Play
D|-0---0---------|  3x
A|------------2--|
E|--------5-3-0--|

e|----------------------------------------|
B|-3---3----------------------------------|
G|-0h2-2--4-4-4-4-4-4-4-4-2-2-2-2-2-2-2-2-|
D|-0---0--4-4-4-4-4-4-4-4-2-2-2-2-2-2-2-2-|
A|--------2-2-2-2-2-2-2-2-0-0-0-0-0-0-0-0-|
E|----------------------------------------|


PRE-CHORUS

e|-----------------|
B|-----------------|
G|-----------------| Play
D|---2---2---2---2-|  2x
A|---2---2---2---2-|
E|-0---3---0---3---|


CHORUS

e|---------3-3-3-3-----------------|
B|---------3-3-3-3-3-3-3-3---------|
G|---------0-0-0-0-2-2-2-2-2-2-2-2-| Play
D|-2-2-2-2-0-0-0-0-0-0-0-0-2-2-2-2-|  4x
A|-2-2-2-2-----------------0-0-0-0-|
E|-0-0-0-0-------------------------|


SOLO

e|---------------------------------|
B|---------3-3-3-3-----------------|
G|-4-4-4-4-2-2-2-2-----------------| Play
D|-4-4-4-4-0-0-0-0-5-5-5-5-2-2-2-2-|  3x
A|-2-2-2-2---------5-5-5-5-2-2-2-2-|
E|-----------------3-3-3-3-0-0-0-0-|

e|-------------------------|
B|---------3-3-3-3---------|
G|-4-4-4-4-2-2-2-2---------|
D|-4-4-4-4-0-0-0-0-5-5-4-3-|
A|-2-2-2-2---------5-5-4-3-|
E|-----------------3-3-2-1-|


CHORUS

e|---------3-3-3-3-----------------|
B|---------3-3-3-3-3-3-3-3---------|
G|---------0-0-0-0-2-2-2-2-2-2-2-2-| Play
D|-2-2-2-2-0-0-0-0-0-0-0-0-2-2-2-2-|  4x
A|-2-2-2-2-----------------0-0-0-0-|
E|-0-0-0-0-------------------------|


END

e|-----------------|
B|-----------------|
G|-----------------| Play
D|---2---2---2---2-|  4x
A|---2---2---2---2-|
E|-0---3---0---3---|

e|---------------------------------|
B|---------------------------------|
G|---------------------------------|
D|-2-------------------------------|
A|-2-------------------------------|
E|-0-------------------------------|

-------------------------------------------------------------------------------
    RYTHM GUITAR

INTRO

e|---------------------------------|
B|---------------------------------|
G|-----------------7---------------| Play
D|-2-------5-------7-------7-------|  4x
A|-2-------5-------5-------7-------|
E|-0-------3---------------5-------|


VERSE

e|-----------------|
B|-----------------|
G|-----------------| Play
D|-------------2---|  8x
A|---5---------2---|
E|-7---7-5-3-0-0---|

e|---------------|
B|-3---3---------|
G|-0h2-2---------| Play
D|-0---0------2--|  3x
A|------------2--|
E|--------5-3-0--|

e|-----------------------------------------|
B|-3----3----------------------------------|
G|-0h2--2--4-4-4-4-4-4-4-4-2-2-2-2-2-2-2-2-|
D|-0----0--4-4-4-4-4-4-4-4-2-2-2-2-2-2-2-2-|
A|---------2-2-2-2-2-2-2-2-0-0-0-0-0-0-0-0-|
E|-----------------------------------------|


PRE-CHORUS

e|-----------------|
B|-----------------|
G|-----------------| Play
D|---2---2---2---2-|  2x
A|---2---2---2---2-|
E|-0---3---0---3---|


CHORUS

e|---------------------------------|
B|---------------------------------|
G|-----------------7-7-7-7---------| Play
D|-2-2-2-2-5-5-5-5-7-7-7-7-7-7-7-7-|  4x
A|-2-2-2-2-5-5-5-5-5-5-5-5-7-7-7-7-|
E|-0-0-0-0-3-3-3-3---------5-5-5-5-|

e|-----------------|
B|-----------------|
G|-----------------| Play
D|---2---2---2---2-|  2x
A|---2---2---2---2-|
E|-0---3---0---3---|


VERSE

e|-----------------|
B|-----------------|
G|-----------------| Play
D|-------------2---|  4x
A|---5---------2---|
E|-7---7-5-3-0-0---|

e|---------------|
B|-3---3---------|
G|-0h2-2---------| Play
D|-0---0------2--|  3x
A|------------2--|
E|--------5-3-0--|

e|-----------------------------------------|
B|-3----3----------------------------------|
G|-0h2--2--4-4-4-4-4-4-4-4-2-2-2-2-2-2-2-2-|
D|-0----0--4-4-4-4-4-4-4-4-2-2-2-2-2-2-2-2-|
A|---------2-2-2-2-2-2-2-2-0-0-0-0-0-0-0-0-|
E|-----------------------------------------|


PRE-CHORUS

e|-----------------|
B|-----------------|
G|-----------------| Play
D|---2---2---2---2-|  2x
A|---2---2---2---2-|
E|-0---3---0---3---|


CHORUS

e|---------------------------------|
B|---------------------------------|
G|-----------------7-7-7-7---------| Play
D|-2-2-2-2-5-5-5-5-7-7-7-7-7-7-7-7-|  4x
A|-2-2-2-2-5-5-5-5-5-5-5-5-7-7-7-7-|
E|-0-0-0-0-3-3-3-3---------5-5-5-5-|


SOLO

e|---------------------------------|
B|---------------------------------|
G|-4-4-4-4-7-7-7-7-----------------| Play
D|-4-4-4-4-7-7-7-7-5-5-5-5-2-2-2-2-|  3x
A|-2-2-2-2-5-5-5-5-5-5-5-5-2-2-2-2-|
E|-----------------3-3-3-3-0-0-0-0-|

e|-------------------------|
B|-------------------------|
G|-4-4-4-4-7-7-7-7---------|
D|-4-4-4-4-7-7-7-7-5-5-4-3-|
A|-2-2-2-2-5-5-5-5-5-5-4-3-|
E|-----------------3-3-2-1-|


CHORUS

e|---------------------------------|
B|---------------------------------|
G|-----------------7-7-7-7---------| Play
D|-2-2-2-2-5-5-5-5-7-7-7-7-7-7-7-7-|  4x
A|-2-2-2-2-5-5-5-5-5-5-5-5-7-7-7-7-|
E|-0-0-0-0-3-3-3-3---------5-5-5-5-|


END

e|-----------------|
B|-----------------|
G|-----------------| Play
D|---2---2---2---2-|  4x
A|---2---2---2---2-|
E|-0---3---0---3---|

e|---------------------------------|
B|---------------------------------|
G|---------------------------------|
D|-2-------------------------------|
A|-2-------------------------------|
E|-0-------------------------------|

************************************

| /   slide up
| \   slide down
| h   hammer-on
| p   pull-off
| ~   vibrato
| +   harmonic
| x   Mute note
| b   Bend
| pb  Pre-bend
| br  Bend release
| pbr Pre-bend release
| brb Bend release bend

************************************
Добавлено: 27.02.2016
Другие материалы по этой песне:
  • Аккорды и текст

Страница создана 03.07.2015
http://primanota.ru/ac-dc/dogs-of-war-chords.htm
Привет, Гость.
Предлагаем пройти революционный курс по гитаре.
Подарок от PrimaNota.Ru, забирай!