PrimaNota.ru - самый крупный в мире бесплатный архив песенных текстов, аккордов, табулатур и нот


AC/DC - Miss Adventure - бас-таба, видео

Регистрация Запомнить меня
Войти через:  Facebook Google Twitter Vk Yandex Mail.ru

AC/DC - Miss Adventure - бас-таба, видео

Печатать
Просмотров: 341
Уроки эстрадного вокала в Санкт-Петербурге
------------------------------------------------------------------------------
                              Miss Adventure - AC/DC
------------------------------------------------------------------------------

Tabbed by: ChrisT

From the Album: Rock or Bust (2014)

Tuning: Standard

Intro                  Repeat x3
G|------------------------------|----------------------|
D|o----------------------------o|----------------------|
A|o-------------------3-4-5----o|---3-5----------------|
E|----0---3---4---5-------------|---------3-5---3-0----|

                       Repeat x3
G|------------------------------|----------------------|
D|o----------------------------o|----------------------|
A|o-------------------3-4-5----o|---3-5----------------|
E|----0---3---4---5-------------|---------3-5---3-0----|

Verse 1                        Repeat x4
G|--------------------------------------|
D|o------------------------------------o|
A|o---------3---5---3-5----------------o|
E|----0-3-5---------------3-5---3-0-----|

Chorus                 Repeat x3
G|------------------------------|----------------------|
D|o----------------------------o|----------------------|
A|o-------------------3-4-5----o|---3-5----------------|
E|----0---3---4---5-------------|---------3-5---3-0----|

                       Repeat x3
G|------------------------------|----------------------|
D|o----------------------------o|----------------------|
A|o-------------------3-4-5----o|---3-5----------------|
E|----0---3---4---5-------------|---------3-5---3-0----|

Verse 2                        Repeat x4
G|--------------------------------------|
D|o------------------------------------o|
A|o---------3---5---3-5----------------o|
E|----0-3-5---------------3-5---3-0-----|

Chorus                 Repeat x3
G|------------------------------|----------------------|
D|o----------------------------o|----------------------|
A|o-------------------3-4-5----o|---3-5----------------|
E|----0---3---4---5-------------|---------3-5---3-0----|

                       Repeat x3
G|------------------------------|----------------------|
D|o----------------------------o|----------------------|
A|o-------------------3-4-5----o|---3-5----------------|
E|----0---3---4---5-------------|---------3-5---3-0----|

G|-----------------------------------------------------------------------|
D|o---------------------------------------------------------------------o|
A|o---7-7-7-7-7-7-7-7-5-5-5-5-5-5-5-5-4-4-4-4-4-4-4-4-3-5---------------o|
E|----------------------------------------------------------3-5---3-0----|

Guitar 'Solo' - not quite sure about this but it fits.
G|------------------------------------------------------|
D|o----------------------------------------------------o|
A|o---7-7---7-7---7-7---7-7---5-5---5-5---4-4---4-4----o|
E|------------------------------------------------------|

ONo Bass
G|-----------------------------------------------------|
D|-----------------------------------------------------|
A|-----------------------------------------------------|
E|-----------------------------------------------------|

                       Repeat x3
G|------------------------------|----------------------|
D|o----------------------------o|----------------------|
A|o-------------------3-4-5----o|---3-5----------------|
E|----0---3---4---5-------------|---------3-5---3-0----|

                       Repeat x3
G|------------------------------|----------------------|
D|o-------------------3-4-5----o|---3-5----------------|
A|o---0---3---4---5------------o|---------3-5---3-0----|
E|------------------------------|----------------------|

                       Repeat x3
G|------------------------------|----------------------|
D|o-------------------3-4-5----o|---3-5----------------|
A|o---0---3---4---5------------o|---------3-5---3-0----|
E|------------------------------|----------------------|

                                                                Repeat x3
G|-----------------------------------------------------------------------|
D|o---------------------------------------------------------------------o|
A|o---7-7-7-7-7-7-7-7-5-5-5-5-5-5-5-5-4-4-4-4-4-4-4-4-3-5---------------o|
E|----------------------------------------------------------3-5---3-0----|


Добавлено: 03.11.2015
Другие материалы по этой песне:

Страница создана 03.11.2015
http://primanota.ru/ac-dc/miss-adventure-chords.htm
Привет, Гость.
Предлагаем пройти революционный курс по гитаре.
Подарок от PrimaNota.Ru, забирай!