PrimaNota.ru - самый крупный в мире бесплатный архив песенных текстов, аккордов, табулатур и нот


AC/DC - Got Some Rock N Roll Thunder - таба, бас-таба, видео

Регистрация Запомнить меня
Войти через:  Facebook Google Twitter Vk Yandex Mail.ru

AC/DC - Got Some Rock N Roll Thunder - таба, бас-таба, видео

Печатать
Просмотров: 407
Уроки эстрадного вокала в Санкт-Петербурге
As recorded by AC/DC
                        (From the Album ROCK OR BUST)

Transcribed by gnolivos

Catchiest tune in the album. Worth my time transcribing!
Stevie and Angus play very similar rhythm patterns in this song.

Note:  3sl/4 below,  means: slide from fret 3 to fret 4.  (3 sl 4)

STANDARD TUNING
Gtr 1 ANGUS  (E A D G B E) 
Gtr 2 STEVIE (E A D G B E)


INTRO

GUITAR 1 (ANGUS)
E||---------------------------------|| x2
B||---------------3-3-3-3-3--3------||
G||-2-2-2-2-2-----2-2-2-2-2--2------||
D||-2-2-2-2-2-----4-4-4-4-5--4------||
A||-0-0-0-0-0-----0-0-0-0-0--0------||
E||---------------------------------||
 ||                                 ||         
GUITAR 2  (STEVIE)                  ||
E||---------------------------------||
B||--------------(3)---------3------||
G||(2)------------2-2-2-2-2--2------||
D||-2-2-2-2-2-----4-4-4-4-5--4------||
A||-0-0-0-0-0-----0-0-0-0-0--0------||
E||---------------------------------||



VERSE

GUITAR 1 (ANGUS)
E|-------------------|-------------------| x1
B|-------------------|-------------------|
G|----2-----------2--|-------2-----------|
D|-2--2-----2--4--2--|-------2-----2--4--|
A|-0-(0)-0--0--0-(0)-|-3sl/4-0--0--0--0--|
E|-------3-----------|----------3--------|
 |                   |                   |          
GUITAR 2  (STEVIE)   |                   | 
E|-------------------|-------------------|
B|-------------------|-------------------|
G|----2-----------2--|-------2-----------|
D|-2--2-----2--4--2--|-------2-----2--4--|
A|-0-(0)-0--0--0-(0)-|-3sl/4-0--0--0--0--|
E|-------3-----------|----------3--------|

GUITAR 1 (ANGUS)    ***Pattern 1***
E||-----------------------|-------------------|| x5
B||-----------------------|-------------------||
G||--------2-----------2--|-------2-----------||
D||--------2-----2--4--2--|-------2-----2--4--||
A||-3sl/4-(0)-0--0--0-(0)-|-3sl/4-0--0--0--0--||
E||-----------3-----------|----------3--------||
 ||                       |                   ||         
GUITAR 2  (STEVIE)        |                   ||
E||-----------------------|-------------------||
B||-----------------------|-------------------||
G||--------2-----------2--|-------2-----------||
D||--------2-----2--4--2--|-------2-----2--4--||
A||-3sl/4-(0)-0--0--0-(0)-|-3sl/4-0--0--0--0--||
E||-----------3-----------|----------3--------||



PRE-CHORUS AND CHORUS

GUITAR 1 (ANGUS)    
E|-2--------------------|               ||-2--------------------|| x2
B|-2---------3----------|               ||-2---------3----------||
G|-0---------2----------|               ||-0---------2----------||
D|-0---------0----------|               ||-0---------0----------||
A|-x---------0----------|               ||-x---------0----------||
D|-3--------------------| + Pattern 1 + ||-3--------------------||   + (PATTERN 1)x2
 |                      |               ||                      ||
GUITAR 2  (STEVIE)      |               ||                      ||
E|-2--------(2)---------|               ||-2--------(2)---------||
B|-2---------3----------|               ||-2---------3----------||
G|-0---------2----------|               ||-0---------2----------||
D|-0---------0----------|               ||-0---------0----------||
A|-x---------0----------|               ||-x---------0----------||
E|-3--------------------|               ||-3--------------------||

GUITAR 1 (ANGUS)
E||---------------2-2-2-----2---------|| x2
B||---------------2-2-2--3--2---------||
G||-2-2-2-2-2-----0-0-0--2--0---------||
D||-2-2-2-2-2-----0-0-0--0--0---------||
A||-0-0-0-0-0-----x-x-x--0--x---------||
E||---------------3-3-3-----3---------||
 ||                                   ||         
GUITAR 2  (STEVIE)                    ||
E||--------------(2)----(2)-2---------|| 
B||---------------2-2-2--3--2---------||
G||-2-2-2-2-2-----0-0-0--2--0---------||
D||-2-2-2-2-2-----0-0-0--0--0---------||
A||-0-0-0-0-0-----x-x-x--0--x---------||
E||---------------3-3-3-----3---------||



VERSE 2

GUITAR 1 (ANGUS)    
E||-----------------------|-------------------|| x4
B||-----------------------|-------------------||
G||--------2-----------2--|-------2-----------||
D||--------2-----2--4--2--|-------2-----2--4--||
A||-3sl/4-(0)-0--0--0-(0)-|-3sl/4-0--0--0--0--||
E||-----------3-----------|----------3--------||
 ||                       |                   ||         
GUITAR 2  (STEVIE)        |                   ||
E||-----------------------|-------------------||
B||-----------------------|-------------------||
G||--------2-----------2--|-------2-----------||
D||--------2-----2--4--2--|-------2-----2--4--||
A||-3sl/4-(0)-0--0--0-(0)-|-3sl/4-0--0--0--0--||
E||-----------3-----------|----------3--------||



PRE-CHORUS AND CHORUS

GUITAR 1 (ANGUS)    
E|-2--------------------|               |-2-----------------------------------------|
B|-2---------3----------|               |-2---------3-------------------------------|
G|-0---------2----------|               |-0---------2------------------(2)(2)(2)(2)-|
D|-0---------0----------|               |-0---------0-------2--2--2--2--2--2--2--2--|
A|-x---------0----------|               |-x---------0-------2--2--2--2--4--4--4--4--|
E|-3--------------------| + Pattern 1 + |-3-----------------0--0--0--0--------------| 
 |                      |               |                                           |
GUITAR 2  (STEVIE)      |               |                                           |
E|-2--------(2)---------|               |-2--------(2)------------------------------|
B|-2---------3----------|               |-2---------3-------------------------------|
G|-0---------2----------|               |-0---------2-------1--1--1--1--------------|
D|-0---------0----------|               |-0---------0-------2--2--2--2-(2)(2)(2)(2)-|
A|-x---------0----------|               |-x---------0-------2--2--2--2--4--4--4--4--|
E|-3--------------------|               |-3-----------------0--0--0--0--5--5--5--5--| 

GUITAR 1 (ANGUS)   
E||-----------------------|-------------------|| x4
B||-----------------------|-------------------||
G||--------2-----------2--|-------2-----------||
D||--------2-----2--4--2--|-------2-----2--4--||
A||-3sl/4-(0)-0--0--0-(0)-|-3sl/4-0--0--0--0--||
E||-----------3-----------|----------3--------||
 ||                       |                   ||         
GUITAR 2  (STEVIE)        |                   ||
E||-----------------------|-------------------||
B||-----------------------|-------------------||
G||--------2-----------2--|-------2-----------||
D||--------2-----2--4--2--|-------2-----2--4--||
A||-3sl/4-(0)-0--0--0-(0)-|-3sl/4-0--0--0--0--||
E||-----------3-----------|----------3--------||

GUITAR 1 (ANGUS)
E||---------------------------------|| x2
B||---------------3-3-3-3-3--3------||
G||-2-2-2-2-2-----2-2-2-2-2--2------||
D||-2-2-2-2-2-----4-4-4-4-5--4------||
A||-0-0-0-0-0-----0-0-0-0-0--0------||
E||---------------------------------||
 ||                                 ||          
GUITAR 2  (STEVIE)                  ||
E||---------------------------------||
B||--------------(3)---------3------||
G||(2)------------2-2-2-2-2--2------||
D||-2-2-2-2-2-----4-4-4-4-5--4------||
A||-0-0-0-0-0-----0-0-0-0-0--0------||
E||---------------------------------||



SOLO

GUITAR 1 (ANGUS)
E||---------------------------------|| x2
B||---------------------------------||
G||----------SOLO-------------------||
D||---------------------------------||
A||---------------------------------||
E||---------------------------------||
 ||                                 ||         
GUITAR 2  (STEVIE)                  ||
E||---------------------------------||
B||---------------------------------||
G||-4-4-4-4-4-----------------------||
D||-4-4-4-4-4---(2)(2)(2)(2)--------||
A||-2-2-2-2-2----2--2--2--2---------||
E||--------------4--4--5--4---------||

GUITAR 1 (ANGUS)
E||---------------------------------|| x2
B||---------------------------------||
G||----------SOLO-------------------||
D||---------------------------------||
A||---------------------------------||
E||---------------------------------||
 ||                                 ||         
GUITAR 2  (STEVIE)                  ||
E||---------------------------------||
B||---------------------------------||
G||-4-4-4-4-4----2--2-----2---------||
D||-4-4-4-4-4----2--2-----2---------||
A||-2-2-2-2-2----0--0-----0---------||
E||--------------------4------------||



OUTRO

GUITAR 1 (ANGUS)   (With Angus outro solo)          
E||-----------------------|-------------------|| x8 ...outro fade
B||-----------------------|-------------------||
G||--------2-----------2--|-------2-----------||
D||--------2-----2--4--2--|-------2-----2--4--||
A||-3sl/4-(0)-0--0--0-(0)-|-3sl/4-0--0--0--0--||
E||-----------3-----------|----------3--------||
 ||                       |                   ||         
GUITAR 2  (STEVIE)        |                   ||
E||-----------------------|-------------------||
B||-----------------------|-------------------||
G||--------2-----------2--|-------2-----------||
D||--------2-----2--4--2--|-------2-----2--4--||
A||-3sl/4-(0)-0--0--0-(0)-|-3sl/4-0--0--0--0--||
E||-----------3-----------|----------3--------||

Добавлено: 03.07.2015
Другие материалы по этой песне:
  • Аккорды и текст

Страница создана 03.07.2015
http://primanota.ru/ac-dc/got-some-rock-n-roll-thunder-chords.htm
Привет, Гость.
Предлагаем пройти революционный курс по гитаре.
Подарок от PrimaNota.Ru, забирай!