PrimaNota.ru - самый крупный в мире бесплатный архив песенных текстов, аккордов, табулатур и нот


AC/DC - Emission Control - таба, бас-таба, видео

Регистрация Запомнить меня
Войти через:  Facebook Google Twitter Vk Yandex Mail.ru

AC/DC - Emission Control - таба, бас-таба, видео

Печатать
Просмотров: 537
Уроки эстрадного вокала в Санкт-Петербурге
-------------------------------------------------------------------------------
                             Emission Control - Ac Dc
-------------------------------------------------------------------------------
Tabbed by: Guitar_Rocker_L
E-mail: lukas.l.g.grasser@gmail.com

Tuning: Standard

e|---------------------------------------------------------------------------|
B|---------------------------------------------------------3///-----3///-----|
G|---------------------------------------------------------3///-----3///-----|
D|--------5---3---5----------3---------3-----------5--5--5---------5-5-5-----|
A|---------------------4----------3----------3-------------------------------|
E|---3-----------------------------------------------------------------------|


Repeat 8x into verse

appreciate comments and likes
Добавлено: 03.04.2015
Другие материалы по этой песне:
  • Аккорды и текст

Страница создана 03.04.2015
http://primanota.ru/ac-dc/emission-control-chords.htm
Привет, Гость.
Предлагаем пройти революционный курс по гитаре.
Подарок от PrimaNota.Ru, забирай!