PrimaNota.ru - самый крупный в мире бесплатный архив песенных текстов, аккордов, табулатур и нот


AC/DC - Rock The House - таба, бас-таба, драм-таба, видео

Регистрация Запомнить меня
Войти через:  Facebook Google Twitter Vk Yandex Mail.ru

AC/DC - Rock The House - таба, бас-таба, драм-таба, видео

Печатать
Просмотров: 226
Kick Ass riff
e|-------------------------------------------------------------------------------------------------|
B|-------------------------------------------------------------------------------------------------|
G|-2------------------------2-----------------------2-------------------------2--------------------|
D|----42-2---------------------42-2--------------------42-2----------------------42-2--------------|
A|------4---4---2-0-2-0----------4---2-4-4-2-0-----------4---4---2-0-2-0-----------4---4-2-4-2-0---|
E|------------2---------2----------------------2---------------2---------2-----------------------2-|

Verse
e|---------------------------------------|
B|---------------------------------------|
G|---------------------------------------|
D|---7-9--7-9--4-----7-9--9-7--4---------|
A|---7-9--7-9--4-----7-9--9-7--4---------|
E|---5-7--5-7--2-----5-7--7-5--2---------|

  Rock the house!
e|---------------|
B|---------------|
G|-4-------------|
D|-4----2----4---|
A|-2----2----4---|
E|------0----2---|

Добавлено: 01.08.2015
Другие материалы по этой песне:

Страница создана 03.07.2015
http://primanota.ru/ac-dc/rock-house-chords.htm
Привет, Гость.
Предлагаем пройти революционный курс по гитаре.
Подарок от PrimaNota.Ru, забирай!