PrimaNota.ru - самый крупный в мире бесплатный архив песенных текстов, аккордов, табулатур и нот


AC/DC - Baptism By Fire - таба, бас-таба, видео

Регистрация Запомнить меня
Войти через:  Facebook Google Twitter Vk Yandex Mail.ru

AC/DC - Baptism By Fire - таба, бас-таба, видео

Печатать
Просмотров: 518
Уроки эстрадного вокала в Санкт-Петербурге
-------------------------------------------------------------------------------
                             BAPTISM BY FIRE - AC/DC
-------------------------------------------------------------------------------
Tabbed by: Sarkhann
E-mail:

Tuning:

e|---------------------------------------------------------------------------|
B|---------------------------------------------------------------------------|
G|---------------------------------------------------------------------------|
D|---------------------------------------------------------------------------|
A|--------5------------------------------------------------------------------|
E|--0-3-7----7-0-5--5-0-3-6-5-0----------------------------------------------|

e|---------------------------------------------------------------------------|
B|---------------------------------------------------------------------------|
G|---------------------------------------------------------------------------|
D|---------------------------------------------------------------------------|
A|--------5---------4-3-2----------------------------------------------------|
E|--0-3-7----7-0-5--------0-3-0----------------------------------------------|




************************************

| /   slide up
| \   slide down
| h   hammer-on
| p   pull-off
| ~   vibrato
| +   harmonic
| x   Mute note
| b   Bend
| pb  Pre-bend
| br  Bend release
| pbr Pre-bend release
| brb Bend release bend

************************************

Chords used later in this song are a G e played in AC/DC style... As far as i discovered this song
with my ears. 
Correct this tab if i'm wrong :)
Добавлено: 26.07.2015
Другие материалы по этой песне:

Страница создана 03.07.2015
http://primanota.ru/ac-dc/baptism-by-fire-chords.htm
Привет, Гость.
Предлагаем пройти революционный курс по гитаре.
Подарок от PrimaNota.Ru, забирай!