PrimaNota.ru - самый крупный в мире бесплатный архив песенных текстов, аккордов, табулатур и нот


10 Years - Miscellanea - таба, видео

Регистрация Запомнить меня
Войти через:  Facebook Google Twitter Vk Yandex Mail.ru

10 Years - Miscellanea - таба, видео

Печатать
Просмотров: 191
Уроки эстрадного вокала в Санкт-Петербурге
Авторы музыки: Jesse Hasek, Brian Vodinh, Ryan Johnson
Авторы текста: Jesse Hasek
10 Years: Miscellanea

Transcribed by: mysticguitar77

YouTube Channel: https://www.youtube.com/user/MysticGuitar77

Date last modified: January 25, 2015

Tuning: Drop C# (C#,G#,C#,F#,A#,D#)

Notes: The brand new single from 10 Years off their new album, From Birth To Burial due out sometime this
       year. Very easy song despite the odd time signature during the main part of this song. Really only
       4 parts to it all in all. It's possible that this song is in an open C# tuning (ie. Wasteland), the
       bridge has me thinking it could be, but I hashed it out in regular Drop C# tuning and I think it sounds
       decent without having to mess around with an alt-tuning. 

Riff 1
D#|---------------------------------|
A#|---------------------------------|
F#|---------------------------------|
C#|---------------------------------| 
G#|-----------3---------------3-----|
C#|-1-0---1-0---0-0-1-0---1-0---0-0-|
                      ^ends here last time through

Play Riff 1 x2.5

Riff 2 w/ tape echo and delay (let notes ring out)
D#|-10~------12~------11~------------|
A#|----------------------------------|
F#|----------------------------------|
C#|----------------------------------|
G#|----------------------------------|
C#|----------------------------------|

Play Riff 2 x2
Play Riff 1 x2.5   "Running faster..."
Play Riff 2 x2
Play Riff 1 x4     "Running faster..."

Riff 3 (let all chords ring out)
D#|------------------------------------------------------------------|
A#|-------------1~----------3~-(3)---------3--3-3-3-3-3--3-3-3-3-----|
F#|-2~----------x-----------x--------------4--4-4-4-4-4--4-4-4-4-----|
C#|-2~------2-2-2~------2-2-2~-------------5--5-5-5-5-5--5-5-5-5-----|
G#|-0~------0-0-0~------0-0-0~---------0-0-----------------------0-0-|
C#|------------------------------------------------------------------|

Play Riff 3 x2

Riff 4 (let all notes ring out)
D#|-------------------------------------------------|
A#|-------5~--3~---------3~-------------------------|
F#|-----2--------------2-----5~---5~--4~---------2~-|
C#|---2--------------2---------------------4--5-----|
G#|-0------------000--------------------------------|
C#|-------------------------------------------------|

D#|----------------------------------------------------------------|
A#|---------5~--3~---------3~--------------------------------------|
F#|-------2--------------2-----5~--5~--4~---------2--2-2-2-2-2-2-2-|
C#|-----2--------------2--------------------4--5-------------------|
G#|-000------------000---------------------------------------------|
C#|----------------------------------------------------------------|

(piano interlude)

Play Riff 1 x4   "Running faster..."
Play Riff 3 x1   "Shadows in sheeps clothes..."
Play Riff 4 x1

(piano ends the song)

Enjoy!!


Добавлено: 03.07.2015
Другие материалы по этой песне:

Страница создана 03.07.2015
http://primanota.ru/10-years/miscellanea-chords.htm
Привет, Гость.
Предлагаем пройти революционный курс по гитаре.
Подарок от PrimaNota.Ru, забирай!