PrimaNota.ru - самый крупный в мире бесплатный архив песенных текстов, аккордов, табулатур и нот


10 Years - Ashes - таба, видео

Регистрация Запомнить меня
Войти через:  Facebook Google Twitter Vk Yandex Mail.ru

10 Years - Ashes - таба, видео

Печатать
Просмотров: 88
10 Years: Ashes

Transcribed by: mysticguitar77

Facebook: https://www.facebook.com/MysticGuitar77
YouTube Channel: https://www.youtube.com/user/MysticGuitar77

Date last modified: April 20, 2015

Tuning: Drop C# (C#,G#,C#,F#,A#,D#)

Riff 1 (guitar 1, let all notes ring out)   "...somewhere down this rabbit hole..."
D#|----------------|
A#|----------------|
F#|----3*----------|
C#|-3*------5*-----| x2
G#|----------------|
C#|----------------|
            ^ slight whammy vibrato on this harmonic as it rings out

       "Trying to stay on our feet..."
D#|-5----------|
A#|----6--5--3-|
F#|------------|
C#|------------| x3
G#|------------|
C#|------------|

       "Complicate, confuse and change..."
D#|---------------------5------------------------------------5----------|
A#|------------------------6--5--3------------------------------6--5--3-|
F#|------------3*-------------------------3*----------------------------|
C#|-5*------3*-------------------------3*------5*---5*---5*-------------|
G#|---------------------------------------------------------------------|
C#|---------------------------------------------------------------------|

Riff 1 (guitar 2, light distortion, lightly palm-muted)   "Rapidly adapting me..."
D#|----------------------------------|
A#|----------------------------------|
F#|----------------------------------|
C#|-3---3---3---3---/7---7---5---5---|
G#|---5---5---5---5----8---8---7---7-|
C#|----------------------------------|

Play above twice, rest, and then play again 4 times.   "Complicate, confuse and change..."

       "Ashes to ashes, dust into dust..."
D#|-------------------------|
A#|-------------------------|
F#|-------------------------|
C#|-------------------------| x4
G#|-5-5-5-5-5-5-5-5-5-5-5-5-|
C#|-------------------------|
    * * * * * * * * * * * *

Riff 2 (guitar 1) "Ashes to ashes, dust into dust..."
D#|-5----------|
A#|----6--5--3-|
F#|------------|
C#|------------|
G#|------------|
C#|------------|

Play Riff 2 x6   "Ashes to ashes, dust into dust..." (guitar 1)

Riff 2 (guitar 2)   "Ashes to ashes, dust into dust..."
D#|----------------------------------------|
A#|----------------------------------------|
F#|----------------------------------------|
C#|-0-0-0-0---0-0-0-0---3-3-3-3---/7-7-7-7-|
G#|-0-0-0-0---0-0-0-0---3-3-3-3---/7-7-7-7-|
C#|-0-0-0-0---0-0-0-0---3-3-3-3---/7-7-7-7-|

Play Riff 2 x4   "Lay your memories out to rust..." (guitar 2)

Riff 3 (guitar 1 w/ wah filter and some sort of harmonic effect)
D#|----------------------------------|
A#|-/6-5-----------------------------|
F#|------5-4---2---------------------|
C#|------0-0-3---2--/7---7---5---5---|
G#|--------------3-----8---8---7---7-|
C#|----------------------------------|

Play Riff 3 x4   "...between the lines..." (guitar 1)

Riff 4 (both guitars)
D#|----------------------------------------------|
A#|-3-3-3-3-3---3-3-3-3-3------------------------|
F#|-2-2-2-2-2---2-2-2-2-2------------------------|
C#|-0-0-0-0-0---0-0-0-0-0---3-3-3-3-3-/7-7-7-7-7-|
G#|-0-0-0-0-0---0-0-0-0-0---3-3-3-3-3-/7-7-7-7-7-|
C#|-0-0-0-0-0---0-0-0-0-0---3-3-3-3-3-/7-7-7-7-7-|

Play Riff 2 x4   "Ashes to ashes, dust into dust..." (both guitars)
Play Riff 3 x4   (end with one strum for the open low C# string)

Enjoy!!

Добавлено: 13.11.2015
Другие материалы по этой песне:
  • Аккорды и текст

Страница создана 13.11.2015
http://primanota.ru/10-years/ashes-chords.htm
Привет, Гость.
Предлагаем пройти революционный курс по гитаре.
Подарок от PrimaNota.Ru, забирай!