PrimaNota.ru - самый крупный в мире бесплатный архив песенных текстов, аккордов, табулатур и нот


10 Years - Luna - таба, видео

Регистрация Запомнить меня
Войти через:  Facebook Google Twitter Vk Yandex Mail.ru

10 Years - Luna - таба, видео

Печатать
Просмотров: 179
Уроки эстрадного вокала в Санкт-Петербурге
Авторы: Jesse Hasek, Brian Vodinh, Ryan Johnson

10 Years: Luna

Transcribed by: mysticguitar77

Facebook: https://www.facebook.com/MysticGuitar77
YouTube Channel: https://www.youtube.com/user/MysticGuitar77

Date last modified: April 21, 2015

Tuning: Drop B (B,F#,B,E,G#,C#)

Riff 1 (guitar 1, clean, let all notes ring out)   "Bright eyes stay tucked away..."
G#|-3-----------------5----------3----------------2----|
G#|----0-----------------3----------0------------------|
 E|-------(0)--------------------------(0)-----------2-|
 B|------------(2)--------------------------(2)--------|
F#|----------------------------------------------------|
 B|----------------------------------------------------|

*notes in parenthesis are ghost notes, they're so low in the mix, you don't even have to play them*

Riff 2 (guitar 1, clean, let note/chord ring out)   "Your golden age..."
G#|-3---------3---|
G#|-5-5-------5-5-|
 E|-4---------4---|
 B|-2---------2---|
F#|-2---------2---|
 B|-2---------2---|

Play Riff 2 x2   "Your golden age..."
Play Riff 1 x1   "...through your maze..."
Play Riff 2 x2   "Through love and pain..."

Riff 3 (guitar 1, distortion w/ delay, let all notes/chords ring out)   "So rain down on my head..."
G#|------3--2~--------5---2~-----|
G#|----0-------------------------|
 E|------------------------------|
 B|-2-------------2------------2-|
F#|------------------------------|
 B|------------------------------|

Play Riff 3 x4   "Only the sun when the rain comes..." (guitar 1)

Riff 3 (guitar 2, distortion)   "So rain down on my head..."
G#|-------------------------------|
G#|-------------------------------|
 E|-------------------------------|
 B|-------------------------------|
F#|-------------------------------|
 B|-2-2-2-22-2---5-5-5-5p0-0---7b-|

Play Riff 3 x4   "Only the sun when the rain comes..." (guitar 2)

Riff 4 (guitar 2, distortion w/ reverb)
G#|------------------------------------------------------------------------------------|
G#|------------------------------------------------------------------------------------|
 E|------------------------------------------------------------------------------------|
 B|-2-2-2-2-2-2-2-2-2-2-2-2-2-2-2-2-2b-2b-2b-2b-2b-2b-2b-2b-2b-2b-2b-2b-2b-2b-2b-2b-2b-|
F#|------------------------------------------------------------------------------------|
 B|------------------------------------------------------------------------------------|

Play Riff 4 x4
Play Riff 1 x1.5   "So now I see you're free from me..."
Play Riff 3 x4     "So rain down on my head..." (both guitars)
Play Riff 2 x1     (guitar 1)

Ending (guitar 2, distortion)
G#|--------------------------|
G#|--------------------------|
 E|--------------------------|
 B|-2~---------0-2-----2~----|
F#|-2~-------0---------2~----|
 B|-2~-------------2---2~----|

Enjoy!!
Добавлено: 13.11.2015
Другие материалы по этой песне:
  • Аккорды и текст

Страница создана 13.11.2015
http://primanota.ru/10-years/luna-chords.htm
Привет, Гость.
Предлагаем пройти революционный курс по гитаре.
Подарок от PrimaNota.Ru, забирай!