PrimaNota.ru - самый крупный в мире бесплатный архив песенных текстов, аккордов, табулатур и нот


10 Years - Crimson Kiss - таба, видео

Регистрация Запомнить меня
Войти через:  Facebook Google Twitter Vk Yandex Mail.ru

10 Years - Crimson Kiss - таба, видео

Печатать
Просмотров: 83
10 Years: Crimson Kiss

Transcribed by: mysticguitar77

Facebook: https://www.facebook.com/MysticGuitar77
YouTube Channel: https://www.youtube.com/user/MysticGuitar77

Date last modified: April 22, 2015

Tuning: Modified Drop C# (C#,G#,C#,F#,C#,C#)

Riff 1 (let all chords ring out)
C#|-0--0-0-0-----0--0-0-0-|
C#|-0--0-0-0-----0--0-0-0-|
F#|-10-9-9-9-----10-9-9-9-|
C#|-x--x-x-x-----x--x-x-x-|
G#|-8--7-7-7-----8--7-7-7-|
C#|-0--0-0-0-----0--0-0-0-|

Play Riff 1 x2

Riff 2   "To tame our tongues..."
C#|------------------------------------------|
C#|------------------------------------------|
F#|------------------------------------------|
C#|-14-\-10-10-10---10-10-10-10-10-10--10-10-|
G#|-12-\-8--8--8----8--8--8--8--8--8---8--8--|
C#|-12-\-8--8--8----8--8--8--8--8--8---8--8--|

Play Riff 2 x4   "Lets black out the sun and the sky..."
Play Riff 1 x1   "...tonight, to feel alive..."
Play Riff 2 x2   "We will be kings and queens..."

Riff 3   "I am your loaded gun..."
C#|------------------------------------------------------------------|
C#|------------------------------------------------------------------|
F#|------------------------------------------------------------------|
C#|------------------------------------------------------------------|
G#|------------------------------------------------------------------|
C#|-0--7--0-8-7-5-7-0--7--0-8-10-10--0--7--0-8-7-5-7-0--7--0-8-7-5-3-|

Play Riff 3 x2   "You are my chosen one..."
Play Riff 1 x1  
Play Riff 2 x4   "Out of your minds..."
Play Riff 1 x1   "Chasing horizon lines, to feel alive..."
Play Riff 2 x2   "Your disease kills me..."
Play Riff 3 x2   "I am your loaded gun..."

Riff 4
C#|----------------------|
C#|----------------------|
F#|----------------------|
C#|-----------5----------|
G#|-1-0-0-0-0-6-0-0-0-0--|
C#|-1-0-0-0-0---0-0-0-0--|
        * * *     * * *

Play Riff 4 x4

Riff 5
C#|---------------------------------------|
C#|---------------------------------------|
F#|-19'------------------19b'-------------|
C#|---------------------------------------| ' = tremolo pick
G#|---------------------------------------|
C#|---------------------------------------|

Play Riff 5 x4

Riff 5 (2nd guitar, comes in after you play above twice)
C#|---------------------------------------|
C#|---------------------------------------|
F#|-7'-------------------7b'--------------|
C#|---------------------------------------| x2
G#|---------------------------------------|
C#|---------------------------------------|

Play Riff 1 x1
Play Riff 3 x2   "I am your loaded gun..."
Play Riff 4 x4
Play Riff 1 x0.5 (let last chord ring out until end)

Enjoy!!
Добавлено: 13.11.2015
Другие материалы по этой песне:
  • Аккорды и текст

Страница создана 13.11.2015
http://primanota.ru/10-years/crimson-kiss-chords.htm
Привет, Гость.
Предлагаем пройти революционный курс по гитаре.
Подарок от PrimaNota.Ru, забирай!