PrimaNota.ru - самый крупный в мире бесплатный архив песенных текстов, аккордов, табулатур и нот


10 Years - Survivors - таба, видео

Регистрация Запомнить меня
Войти через:  Facebook Google Twitter Vk Yandex Mail.ru

10 Years - Survivors - таба, видео

Печатать
Просмотров: 133
Уроки эстрадного вокала в Санкт-Петербурге
Авторы: Jesse Hasek, Brian Vodinh, Ryan Johnson

10 Years: Survivors?

Transcribed by: mysticguitar77

Facebook: https://www.facebook.com/MysticGuitar77
YouTube Channel: https://www.youtube.com/user/MysticGuitar77

Date last modified: April 21, 2015

Tuning: D#/Eb Standard (D#,G#,C#,F#,A#,D#/Eb,Ab,Db,Gb,Bb,Eb)

Riff 1 (guitar 1, clean w/ heavy delay, let all notes ring out)
D#|------2---------------------2----------------|
A#|----------3---------------------3----------2-|
F#|--------------4---------------------4--2-----|
C#|---------------------------------------------|
G#|---------------------------------------------|
D#|-0---------------------0---------------------|

Play Riff 1 x4   "Still waiting..."

Riff 2   "And are there any survivors..."
D#|-0---0-0-0---0-0-0--0-0-0--0-0-0--0---0-|
A#|-0---0-0-0---0-0-0--0-0-0--0-0-0--3---2-|
F#|-0---0-0-0---0-0-0--0-0-0--0-0-0--2---2-|
C#|-2---2-2-2---2-2-2--2-2-2--2-2-2--0---2-|
G#|-2---2-2-2---2-2-2--2-2-2--2-2-2--0---0-|
D#|-0---0-0-0---0-0-0--0-0-0--0-0-0--------|
    ^ upstroke, the chorus also ends with this chord

Play Riff 2 x4   "Are there any survivors here..."

Riff 3   "Lost in the moonlight..."
D#|------2--------------------2-------------------------2----------------|
A#|----------3--------------------3----------2--------------3----------2-|
F#|--------------4--------------------4--2----------------------4--2-----|
C#|----------------------------------------------------------------------|
G#|----------------------------------------------------------------------|
D#|-0--------------------0--------------------------0--------------------|

Play Riff 1 x1   "I'm waiting for your high tide..."
Play Riff 2 x4   "And are there any survivors..."

Riff 3 (guitar 1)
D#|---------------------0--0-0-0-0-0--0-0-0-0-0-0---------------------0--0-0-0-0-0--0-0-0-0-0-0-0-0-0-0-|
A#|---------------------3--3-3-3-3-3--3-3-3-3-3-3---------------------3--3-3-3-3-3--3-3-3-3-3-3-3-3-3-3-|
F#|-0--0-0-0-0--0-0-0---2--2-2-2-2-2--2-2-2-2-2-2-0--0-0-0-0--0-0-0---2--2-2-2-2-2--2-2-2-2-2-2-2-2-2-2-|
C#|-2--2-2-2-2--2-2-2---0--0-0-0-0-0--0-0-0-0-0-0-2--2-2-2-2--2-2-2---0--0-0-0-0-0--0-0-0-0-0-0-0-0-0-0-|
G#|-2--2-2-2-2--2-2-2---0--0-0-0-0-0--0-0-0-0-0-0-2--2-2-2-2--2-2-2---0--0-0-0-0-0--0-0-0-0-0-0-0-0-0-0-|
D#|-0--0-0-0-0--0-0-0-0---------------------------0--0-0-0-0--0-0-0-0-----------------------------------|

                        "Wide awake in the bed you made..."
D#|---------------------2--2-2-2-2-2--2-2-2-2-2--2-2-2-2-1-1-1-1-|
A#|---------------------3--3-3-3-3-3--3-3-3-3-3--3-3-3-3-2-2-2-2-|
F#|-0--0-0-0-0--0-0-0---4--4-4-4-4-4--4-4-4-4-4--4-4-4-4-3-3-3-3-|
C#|-2--2-2-2-2--2-2-2---4--4-4-4-4-4--4-4-4-4-4--4-4-4-4-3-3-3-3-|
G#|-2--2-2-2-2--2-2-2---2--2-2-2-2-2--2-2-2-2-2--2-2-2-2-1-1-1-1-|
D#|-0--0-0-0-0--0-0-0-0------------------------------------------|

D#|-2--2-2-2-2-2--2-2-2-2-2--2-2-2-2-1-1-1-1-2--2-2-2-2-2--2-2-2-2-2--2-2-2-2-1-1-1-1-|
A#|-3--3-3-3-3-3--3-3-3-3-3--3-3-3-3-2-2-2-2-3--3-3-3-3-3--3-3-3-3-3--3-3-3-3-2-2-2-2-|
F#|-4--4-4-4-4-4--4-4-4-4-4--4-4-4-4-3-3-3-3-4--4-4-4-4-4--4-4-4-4-4--4-4-4-4-3-3-3-3-|
C#|-4--4-4-4-4-4--4-4-4-4-4--4-4-4-4-3-3-3-3-4--4-4-4-4-4--4-4-4-4-4--4-4-4-4-3-3-3-3-|
G#|-2--2-2-2-2-2--2-2-2-2-2--2-2-2-2-1-1-1-1-2--2-2-2-2-2--2-2-2-2-2--2-2-2-2-1-1-1-1-|
D#|-----------------------------------------------------------------------------------|

D#|-2--2-2-2-2-2--2-2-2-2-2--2-2-2-2-1~-|
A#|-3--3-3-3-3-3--3-3-3-3-3--3-3-3-3-2~-|
F#|-4--4-4-4-4-4--4-4-4-4-4--4-4-4-4-3~-|
C#|-4--4-4-4-4-4--4-4-4-4-4--4-4-4-4-3~-|
G#|-2--2-2-2-2-2--2-2-2-2-2--2-2-2-2-1~-|
D#|-------------------------------------|

Riff 3 (guitar 2, distortion)
D#|---------------------------------0--0-0-0-0-0--0-0-0-0-0-0---------------------------------|
A#|---------------------------------3--3-3-3-3-3--3-3-3-3-3-3---------------------------------|
F#|-9-9-9-11-11-11-12-12-12-14-14---2--2-2-2-2-2--2-2-2-2-2-2-9-9-9-11-11-11-12-12-12-14-14---|
C#|-x-x-x-x--x--x--x--x--x--x--x----0--0-0-0-0-0--0-0-0-0-0-0-x-x-x-x--x--x--x--x--x--x--x----|
G#|-7-7-7-9--9--9--10-10-10-12-12---0--0-0-0-0-0--0-0-0-0-0-0-7-7-7-9--9--9--10-10-10-12-12---|
D#|-------------------------------0---------------------------------------------------------0-|

D#|-0--0-0-0-0-0--0-0-0-0-0-0-0-0-0-0---------------------------------|
A#|-3--3-3-3-3-3--3-3-3-3-3-3-3-3-3-3---------------------------------|
F#|-2--2-2-2-2-2--2-2-2-2-2-2-2-2-2-2-9-9-9-11-11-11-12-12-12-14-14---|
C#|-0--0-0-0-0-0--0-0-0-0-0-0-0-0-0-0-x-x-x-x--x--x--x--x--x--x--x----|
G#|-0--0-0-0-0-0--0-0-0-0-0-0-0-0-0-0-7-7-7-9--9--9--10-10-10-12-12---|
D#|-----------------------------------------------------------------0-|
     
    "Wide awake in the bed you made..."
D#|-----------------------------------------------------------------------------------|
A#|-----------------------------------------------------------------------------------|
F#|-4--4-4-4-4-4--4-4-4-4-4--4-4-4-4-3-3-3-3-4--4-4-4-4-4--4-4-4-4-4--4-4-4-4-3-3-3-3-|
C#|-4--4-4-4-4-4--4-4-4-4-4--4-4-4-4-3-3-3-3-4--4-4-4-4-4--4-4-4-4-4--4-4-4-4-3-3-3-3-|
G#|-2--2-2-2-2-2--2-2-2-2-2--2-2-2-2-1-1-1-1-2--2-2-2-2-2--2-2-2-2-2--2-2-2-2-1-1-1-1-|
D#|-2--2-2-2-2-2--2-2-2-2-2--2-2-2-2-1-1-1-1-2--2-2-2-2-2--2-2-2-2-2--2-2-2-2-1-1-1-1-|

D#|------------------------------------------------------------------------------|
A#|------------------------------------------------------------------------------|
F#|-4--4-4-4-4-4--4-4-4-4-4--4-4-4-4-3-3-3-3-4--4-4-4-4-4--4-4-4-4-4--4-4-4-4-3~-|
C#|-4--4-4-4-4-4--4-4-4-4-4--4-4-4-4-3-3-3-3-4--4-4-4-4-4--4-4-4-4-4--4-4-4-4-3~-|
G#|-2--2-2-2-2-2--2-2-2-2-2--2-2-2-2-1-1-1-1-2--2-2-2-2-2--2-2-2-2-2--2-2-2-2-1~-|
D#|-2--2-2-2-2-2--2-2-2-2-2--2-2-2-2-1-1-1-1-2--2-2-2-2-2--2-2-2-2-2--2-2-2-2-1~-|

Play Riff 2 x6   "Are there any survivors..." (guitar 1)

Riff 2 (guitar 2, distortion, let chords ring out)
D#|--------0------------|
A#|--------0------3---2-|
F#|--------0------2---2-|
C#|-2--------2----0---2-| x4, also ends with the E power chord
G#|-2--------2----0---0-|
D#|-0--------0----------|

Enjoy!!



Добавлено: 13.11.2015
Другие материалы по этой песне:
  • Аккорды и текст

Страница создана 13.11.2015
http://primanota.ru/10-years/survivors-chords.htm
Привет, Гость.
Предлагаем пройти революционный курс по гитаре.
Подарок от PrimaNota.Ru, забирай!