Войти:  Facebook Google Twitter Vk Yandex Mail.ru
PrimaNota.ru - самый крупный в мире бесплатный архив песенных текстов, аккордов, табулатур и нот


Muse - Break It To Me - аккорды, текст

Печатать
ViraMusic 2019 в Петербурге 4 апреля 2019! Скидка 10%!

Break It To Me

  • аккорды, текст
Тональность: 
0
Проще! Аппликатуры

Авторы музыки: Matthew Bellamy
Авторы текста: Matthew Bellamy
Break It To Me
Muse
C#|--x-x-x-x---7----x---------|--7----x-x---------|
G#|--x-x-x-x---7----x---------|--7----x-x---------|
E |--x-x-x-x---7----x---------|--7----x-x---------|
B |--x-x-x-x---7----x---------|--7----x-x---------| (x2)
F#|--x-x-x-x--(0)---x---------|-(0)---x-x---------|
B |--x-x-x-x--(0)---x--0-0-0--|-(0)---x-x--0-0-0--|
              ---               ---   
              W.D               W.D 

"Break it to me"

C#|--7----x-x---------|
G#|--7----x-x---------|
E |--7----x-x---------|
B |--7----x-x---------| (x2)
F#|-(0)---x-x---------|
B |-(0)---x-x--0-0-0--|
    ---   
    W.D 

C#|--x-x-x-x---7----x---------|--7----x-x---------x-x-x-x--|
G#|--x-x-x-x---7----x---------|--7----x-x---------x-x-x-x--|
E |--x-x-x-x---7----x---------|--7----x-x---------x-x-x-x--|
B |--x-x-x-x---7----x---------|--7----x-x---------x-x-x-x--|
F#|--x-x-x-x--(0)---x---------|-(0)---x-x---------x-x-x-x--|
B |--x-x-x-x--(0)---x--0-0-0--|-(0)---x-x--0-0-0--x-x-x-x--|
              ---               ---     
              W.D               W.D

************************************

| x   Dead note
| W.D  Whammy bar down


Don't dress it up but don't beat around the bush
And don't cover it up but don't push it underground
And don't keep it inside and don't edit and redact
And no dumbing it down
And don't fake it, just
And I can handle the truth
I can cope with whatever you're holding back
No need to sugar coat
I know how to mend
I can rise high above the ashes
I'll re-invent
I will re-emerge
Don't dress it up but don't beat around the bush
And don't cover it up but don't push it underground
And don't keep it inside and don't edit and redact
And no dumbing it down
And don't fake it, just (break it to me)
I know how to mend
I can rise high above the ashes
I'll re-invent
I will re-emerge
https://primanota.ru/muse/break-it-to-me-chords.htm

Привет, гитарист!

Тебе подарок от сайта PrimaNota.ru

Забрать подарок
ВАМ ПОДАРКИ ОТ ПРОЕКТА
"ГИТАРНАЯ РЕВОЛЮЦИЯ"