Войти:  Facebook Google Twitter Vk Yandex Mail.ru
PrimaNota.ru - самый крупный в мире бесплатный архив песенных текстов, аккордов, табулатур и нот


Muse - Something Human Preview - табы

Печатать
ViraMusic 2019 в Петербурге 4 апреля 2019! Скидка 10%!

Something Human Preview

  • аккорды, текст

The first part of the song, apparently. Something to tide us over until July 19th.
It's not 100% accurate cuz Matt didn't show all of the fretboard in the video...edits are very much 
appreciated


[Verse]
e|--5---------------------5-----------------|
B|----------------5-------------------5-----|
G|----------6--------6----------7--------6--|
D|-------7-----7-------------7-----7--------|
A|--0---------------------0-----------------|
E|------------------------------------------|
                    My    circuits      have

[*]

e|--5---------------------5-----------------|--5---------------------4-------------------|
B|----------------5-------------------5-----|----------------5---------------------5-----|
G|----------6--------6----------7--------6--|----------6--------6------------6--------6--|
D|-------7-----7-------------7-----7--------|-------7-----7---------------6-----6--------|
A|--0---------------------0-----------------|--0---------------------4-------------------|
E|------------------------------------------|--------------------------------------------|
    blown                                                       I    know    it's  self-
    changed                                                     I    feel          so

e|--2---------------------2-------------------|--2---------------------0-------------------|
B|----------------2---------------------3-----|----------------2---------------------0-----|
G|----------2--------2------------2--------2--|----------2--------2------------1--------1--|
D|-------4-----4---------------4-----2--------|-------4-----4---------------2-----2--------|
A|--------------------------------------------|--------------------------------------------|
E|--2---------------------2-------------------|--2---------------------0-------------------|
   - imposed                                                      and  all       I    have
   alive                                                          My   life    just    blew
 

e|--2----------------------2-------------------|--0---------------------0-------------------|
B|----------------3----------------------3-----|----------------0---------------------0-----|
G|----------2--------2-------------2--------2--|----------1--------1------------1--------1--|
D|-------4-----4----------------4-----4--------|-------2-----2---------------2-----2--------|
A|---------------------------------------------|--------------------------------------------|
E|--2---------------------2--------------------|--0---------------------0-------------------|
   shared            and  all     I     have     loved           is    all     I'll ev -
   up,              I'd   give    it     all      up,            I'll   de    -   pressur  -


[first ending]

e|--2---------------------2-------------------|--2---------------------0-------------------|
B|----------------2---------------------3-----|----------------2---------------------------|
G|----------2--------2------------2--------2--|----------2--------2------------1-----0-----|  [back to *]
D|-------4-----4---------------4-----4--------|-------4-----4---------------2-----2-----1--|
A|--------------------------------------------|--------------------------------------------|
E|--2---------------------2-------------------|--2---------------------0-------------------|
  - er   own                                                   But   something        has

[second ending]

e|--5---------------------5-------------------|--5---------------------5--|
B|----------------5---------------------5-----|----------------5----------|
G|----------6--------6------------7--------6--|----------6--------6-------|
D|-------7-----7---------------7-----7--------|-------7-----7-------------|
A|--0---------------------0-------------------|--0---------------------0--|
E|--------------------------------------------|---------------------------|
  - ize

[Chrous]
e|---------------------------------------------------|--10----------------------10----------------------|
B|-----------------10--------------------------------|--------------------------------------------------|
G|----------11--------11---------------------13------|----------------11-----------------------11-------|
D|-------11----11----------------------14--------14--|-----------12-------12--------------12--------12--|
A|--9------------------------------14-----14---------|-------12----12-----------------12----12----------|
E|----------------------------0----------------------|--10----------------------10----------------------|
    Ah         ah             ah           ah           ah                    Ten     thousand
    Ah         ah             ah           ah           ah                    Five     hundred

e|--9--------------------7-------------------|--7---------------------7----------|
B|---------------10--------------------9-----|----------------9------------------|
G|----------9-------9------------9--------9--|----------9--------9---------------|   [x2]
D|-------11---11--------------9-----9--------|-------9-----9---------------------|
A|--0----------------------------------------|-----------------------------------|
E|-----------------------0-------------------|--0---------------------0----------|
   miles   left         on     the     ro   -  ad
   hours        'till           I      Cm      home                 (only play the 2nd time through)


I need something 

e|--2---------------------0-------------------|--5---------------------10--------------------|
B|----------------2---------------------0-----|----------------5-----------------------------|
G|----------2--------2------------1--------1--|----------6--------6-------------------11-----|
D|-------4-----4---------------2-----2--------|-------7-----7-------------------12-------12--|
A|--------------------------------------------|--0---------------------------12----12--------|
E|--2---------------------0-------------------|------------------------10--------------------|
   hu          -         man                     hu         -         man


e|--10---------------------2-------------------|--0---------------------5-------------------|
B|---------------------------------------2-----|----------------0---------------------5-----|
G|----------------11---------------2--------2--|----------1--------1------------6--------6--|
D|----------12-------12---------4-----4--------|-------2-----2---------------7-----7--------|
A|-------12----12------------------------------|------------------------0-------------------|
E|--10---------------------2-------------------|--0-----------------------------------------|
                          Hu            -        man                    hu         -        


e|--10----------------------10--------------------|--------------------------------------------|---0---|
B|------------------------------------------------|----------------0---------------------------|-------|
G|-----------------11----------------------11-----|----------1--------1------------------------|-------|
D|-----------12-------12-------------12-------12--|-------2-----2------------------0-----4-----|---7---|
A|--------12----12----------------12----12--------|-----------------------------5-----5-----0--|---7---|
E|--10----------------------10--------------------|--0---------------------0-------------------|---0---|
    man


And I ne -

e|---------------------------------------|----------------------10--------|
B|---------------------------------------|----------------------10--------|
G|-----------2------------------2--------|-----------------6----11--------|
D|-----------4------------------2--------|-------7---------7----12--------|
A|-------4-----------------2-------------|-------7--------------12--------|
E|--2-----------------0------------------|--5---------9---------10--------|
  - ed     your    love


And something

e|----------------------------------------|--------------------------------10--|---0---|
B|----------------------------------------|--------------------------------10--|---2---|
G|------------2-------------------2-------|-----------------6--------------11--|---2---|
D|------------4-------------------2-------|-------7---------7---------12-------|---2---|
A|-------4---------4---------2---------2--|-------7-------------------12-------|---0---|
E|--2-------------------0-----------------|--5---------9---------10------------|-------|
    hu        -        man                   hu          -        man

[Verse 1]
My circuits have blown
I know it's self imposed
And all I have shared, and all I have loved
Is all I'll ever own
But something has changed
I feel so alive
My life just blew up, I'd give it all up
I'll depressurize

[Pre-Chorus]
Oh, oh, oh, ten thousand miles left on the road
Oh, oh, oh, five-hundred hours 'till I Am home

[Chorus]
I need something human, human
Human, human

[Verse 2]
Let's face all our fears
Come out of the shade
Let's burn all the money, absolve all the lies
And wake up unscathed
The big picture's gone
Replaced with visions of you
Now life can begin, I've cleansed all my sins
I'm about to break through

[Pre-Chorus]
Oh, oh, oh, three thousand miles left on the road
Oh, oh, oh, two-hundred hours till I Am home

[Chorus]
I need something human, human
Human, human

[Bridge]
And I need the touch
And something human, human

[Pre-Chorus]
Oh, oh, oh, less than a mile left on the road
Oh, oh, oh, I will be crawling though your door
I need something human, human
Human, human


And I need your love
And something human, human
Другие материалы по этой песне:
  • Аккорды, текст

https://primanota.ru/muse/something-human-preview-chords.htm

Привет, гитарист!

Тебе подарок от сайта PrimaNota.ru

Забрать подарок
ВАМ ПОДАРКИ ОТ ПРОЕКТА
"ГИТАРНАЯ РЕВОЛЮЦИЯ"