Войти:  Facebook Google Twitter Vk Yandex Mail.ru
PrimaNota.ru - самый крупный в мире бесплатный архив песенных текстов, аккордов, табулатур и нот


Muse - Propaganda - табы

Печатать
ViraMusic 2019 в Петербурге 4 апреля 2019! Скидка 10%!

Propaganda

  • аккорды, текст

Авторы: Matthew Bellamy, Angel Lopez, Federico Vindver, Timbaland

- 0:07

e|--------------------------------------------------|
B|--------------------------------------------------|
G|--7--7--7--7--5--5--5--5--------------------------|
D|--------------------------5--5--5--5--------------|
A|--------------------------------------8--8--8--8--|
E|--------------------------------------------------|


[Verse 1] - 0:14

e|---------------|------------------------------|---------------|-------------------|
B|---------------|------------------------------|---------------|-------------------|
G|-----7~--7----|-----5--7--7/10--7--7--5--7~--|--5--7/10--5~--|--9b10r9--9--7--7--|
D|---------------|--7---------------------------|---------------|-------------------|
A|---------------|------------------------------|---------------|-------------------|
E|---------------|------------------------------|---------------|-------------------|
                                                                   Baby,  don't  you  know  you
e|---------------|------------------------------|---------------|-------------------------------|
B|---------------|------------------------------|---------------|-------------------------------|
G|--5--7~--7----|-----5--7--7/10--7--7--5--7~--|--5--7/10--5~--|--9b10r9---9-----7-----7----5--|
D|---------------|--7---------------------------|---------------|-------------------------------|
A|---------------|------------------------------|---------------|-------------------------------|
E|---------------|------------------------------|---------------|-------------------------------|


[Chorus] - 0:35
Guitar 1:
    Can't  lose    you make me offers that I can't refuse
e|---------------|-----------------------------------------|
B|---------------|-----------------------------------------|
G|---7~-----7~---|-------5--7--9b10r9---9--7--9~----9--9~--|
D|---------------|--7--------------------------------------|
A|---------------|-----------------------------------------|
E|---------------|-----------------------------------------|

     You   keep  telling  pretty  lies   You  toy  with the truth
e|------------------------------------|---------------------------|
B|--8b10r8---8----8--6-----8--6-/--10-|---10---10----8---6--------|
G|------------------------------------|-----------------------9--|
D|------------------------------------|---------------------------|
A|------------------------------------|---------------------------|
E|------------------------------------|---------------------------|

Guitar 2:
                          Cm
Baby, don't you know you can't lose
F                           G
You make me offers that I can't refuse
Cm                        F
You keep telling pretty lies
                   G (strum once)
You toy with the truth

Oh, you're killing me with your


[Refrain] - 0:50

e|--------------------------------|-----------------------------|
B|--------------------------------|-----------------------------|
G|--5--7--7--7--7--7--5--7--7--7--|--7------7-----7------5---7--|
D|--------------------------------|-----------------------------|
A|--------------------------------|-----------------------------|
E|--------------------------------|-----------------------------|

e|--------------------------------|-----------------------------|
B|--------------------------------|-----------------------------|
G|--5--7--7--7--7--7--5--7--7--7--|--7------7-----7------5---7--|
D|--------------------------------|-----------------------------|
A|--------------------------------|-----------------------------|
E|--------------------------------|-----------------------------|

e|--------------------------------|-----------------------------|
B|--------------------------------|-----------------------------|
G|--5--7-----7-----7--------5--7--|--5--7---7-----7------5---7--|
D|--------------------------------|-----------------------------|
A|--------------------------------|-----------------------------|
E|--------------------------------|-----------------------------|

e|--------------------------------------------------|
B|--------------------------------------------------|
G|--7--7--7--7--5--5--5--5--------------------------|
D|--------------------------5--5--5--5--------------|
A|--------------------------------------8--8--8--8--|
E|--------------------------------------------------|


[Verse 2] - 1:00

e|---------------|------------------------------|---------------7/8-8--|-------------------|
B|---------------|------------------------------|---------------6/7-7--|-------------------|
G|-----7~--7----|-----5--7--7/10--7--7--5--7~--|--5--7/10--5~---------|--9b10r9--9--7--7--|
D|---------------|--7---------------------------|----------------------|-------------------|
A|---------------|------------------------------|----------------------|-------------------|
E|---------------|------------------------------|----------------------|-------------------|
                                                                          Baby,  don't  you  know  you
e|---------------|------------------------------|---------------7/8-8--|-------------------------------|
B|---------------|------------------------------|---------------6/7-7--|-------------------------------|
G|--5--7~--7----|-----5--7--7/10--7--7--5--7~--|--5--7/10--5~---------|--9b10r9--9------7-----7----5--|
D|---------------|--7---------------------------|----------------------|-------------------------------|
A|---------------|------------------------------|----------------------|-------------------------------|
E|---------------|------------------------------|----------------------|-------------------------------|


[Chorus] - 1:20
Guitar 1:
    Can't  lose    you make me offers that I can't refuse
e|---------------|-----------------------------------------|
B|---------------|-----------------------------------------|
G|---7~-----7~---|-------5--7--9b10r9---9--7--9~----9--9~--|
D|---------------|--7--------------------------------------|
A|---------------|-----------------------------------------|
E|---------------|-----------------------------------------|

     You   keep  telling  pretty  lies   You  toy  with the truth
e|------------------------------------|---------------------------|
B|--8b10r8---8----8--6-----8--6-/--10-|---10---10----8---6--------|
G|------------------------------------|-----------------------9--|
D|------------------------------------|---------------------------|
A|------------------------------------|---------------------------|
E|------------------------------------|---------------------------|

Guitar 2:
                          Cm
Baby, don't you know you can't lose
F                           G
You make me offers that I can't refuse
Cm                        F
You keep telling pretty lies
                  G (strum once)
You toy with the truth

Oh, you're killing me with your


[Refrain] - 1:36

e|--------------------------------|-----------------------------|
B|--------------------------------|-----------------------------|
G|--5--7--7--7--7--7--5--7--7--7--|--7------7-----7------5---7--|
D|--------------------------------|-----------------------------|
A|--------------------------------|-----------------------------|
E|--------------------------------|-----------------------------|

e|--------------------------------|-----------------------------|
B|--------------------------------|-----------------------------|
G|--5--7--7--7--7--7--5--7--7--7--|--7------7-----7------5---7--|
D|--------------------------------|-----------------------------|
A|--------------------------------|-----------------------------|
E|--------------------------------|-----------------------------|

e|--------------------------------|-----------------------------|
B|--------------------------------|-----------------------------|
G|--5--7-----7-----7--------5--7--|--5--7---7-----7------5---7--|
D|--------------------------------|-----------------------------|
A|--------------------------------|-----------------------------|
E|--------------------------------|-----------------------------|

e|--------------------------------------------------|
B|--------------------------------------------------|
G|--7--7--7--7--5--5--5--5--------------------------|
D|--------------------------5--5--5--5--------------|
A|--------------------------------------8--8--8--8--|
E|--------------------------------------------------|


[Solo] - 1:46
Played with a slide
e|---------------------|--------------------|
B|---------------------|---------8--86-----|
G|--7--7----5--5/7--7--|--7--7-----------7--|
D|---------------------|--------------------|
A|---------------------|--------------------|
E|---------------------|--------------------|

e|---------------------|--------------------|
B|---------------------|-----6---8--86-----|
G|--7--7----5--5/7--7--|--7--------------7--|
D|---------------------|--------------------|
A|---------------------|--------------------|
E|---------------------|--------------------|

e|--------------------------|--------------------|
B|--6/10--10--8--8/10---10--|--6--6---8--86-----|
G|--------------------------|-----------------7--|
D|--------------------------|--------------------|
A|--------------------------|--------------------|
E|--------------------------|--------------------|

e|--5/10--10--8--8/10---10--|--------------------|
B|--------------------------|--6--6---8--86-----|
G|--------------------------|-----------------7--|
D|--------------------------|--------------------|
A|--------------------------|--------------------|
E|--------------------------|--------------------|


[Chorus] - 2:06
Cm
Can't lose
F                         G
You make me offers that I can't refuse
Cm                      F
You keep telling pretty lies, babe
G                        Cm
Baby, don't you know you can't lose?
F                         G
You make me offers that I can't refuse, yeah
Cm                      F
You keep telling pretty lies, babe
G                            Cm
Don't you know that you just can't lose?
F                         G
You make me offers that I can't refuse, yeah
Cm                      F
You keep telling pretty lies
               G (single strum)
You play with truth

Oh, you're killing me with your


 - 2:51

e|--------------------------------------------------|
B|--------------------------------------------------|
G|--7--7--7--7--5--5--5--5--------------------------|
D|--------------------------5--5--5--5--------------|
A|--------------------------------------8--8--8--8--|
E|--------------------------------------------------|

e|--------------------------------------------------|
B|--------------------------------------------------|
G|--------7--7--------7--7--------7--7--7--7--------|
D|--------------------------------------------------|
A|--5--5--------5--5--------5--5--------------5--5--|
E|--------------------------------------------------|


****************************

| ~ - vibrato
|  - slide down
| / - slide up
| b - bend
| r - release

****************************
https://primanota.ru/muse/propaganda-chords.htm

Привет, гитарист!

Тебе подарок от сайта PrimaNota.ru

Забрать подарок
ВАМ ПОДАРКИ ОТ ПРОЕКТА
"ГИТАРНАЯ РЕВОЛЮЦИЯ"