Войти:  Facebook Google Twitter Vk Yandex Mail.ru
PrimaNota.ru - самый крупный в мире бесплатный архив песенных текстов, аккордов, табулатур и нот


Muse - Get Up And Fight - табы

Печатать
ViraMusic 2019 в Петербурге 4 апреля 2019! Скидка 10%!

Get Up And Fight

  • аккорды, текст

Авторы: Matthew Bellamy, Shellback

G|-----------------|-----------------|
D|-----------------|-----------------|
A|-7-7-7-7-7-7-7-7-|-7-7-7-7-7-7-7-7-|
E|-----------------|-----------------|

G|--------------------|---------------------|-----------------|-----------8-----|
D|---11-------11------|---11--------11------|---9-------9-----|---9-------------|
A|------9-11-----9-11-|-0----9-11-0----9-11-|-----7-9-----7-9-|-----7-9-7---7-9-|
E|-9---------9--------|---------------------|-7-------7-------|-7---------------|

[Verse 1]

G|--------------------|---------------------|-----------------|-----------8-----|
D|---11-------11------|---11--------11------|---9-------9-----|---9-------------|
A|------9-11-----9-11-|-0----9-11-0----9-11-|-----7-9-----7-9-|-----7-9-7---7-9-| (x4)
E|-9---------9--------|---------------------|-7-------7-------|-7---------------|

[Pre-Chorus]

G|---------------------|---------------------|---------------------|-----------------|
D|---10--------10------|---11--------11------|---11--------11------|---9-------9-----|
A|------9-10------9-10-|------9-11------9-11-|------9-11------9-11-|-----7-9-----7-9-|
E|-8---------8---------|-9---------9---------|-9---------9---------|-7-------7-------|

G|---------------------|---------------------|---------------------|-----------------|------------|
D|---10--------10------|---11--------11------|---11--------11------|---9-------9-----|---9--------|
A|------9-10------9-10-|------9-11------9-11-|------9-11------9-11-|-----7-9-----7-9-|-----7-9----|
E|-8---------8---------|-9---------9---------|-9---------9---------|-7-------7-------|-7----------|

[Chorus]

G|----------------------|----------------------|----------------------|----------------------|
D|----------------------|----------------------|----------------------|----------------------|
A|-7-7-7-7-7-7-7-------|-4-4-4-4-4-4-4--2-2-2-|----------------------|-9-9-9-9-9-9-9-------|
E|----------------4-4-4-|----------------------|-5-5-5-5-5-5-5/-7-7-7-|----------------5-5-5-|

G|----------------------|----------------------|----------------------|----------------------|
D|----------------------|----------------------|----------------------|----------------------|
A|-7-7-7-7-7-7-7--6-6-6-|-4-4-4-4-4-4-4--2-2-2-|----------------------|-9-9-9-9-9-9-9-------|
E|----------------------|----------------------|-5-5-5-5-5-5-5/-7-7-7-|----------------5-5-5-|

[Pre-Verse]

G|-----------------|
D|-----------------|
A|-7-7-7-7-7-7-7-7-|
E|-----------------|

[Verse 2]

G|--------------------|---------------------|-----------------|-----------8-----|
D|---11-------11------|---11--------11------|---9-------9-----|---9-------------|
A|------9-11-----9-11-|-0----9-11-0----9-11-|-----7-9-----7-9-|-----7-9-7---7-9-| (x4)
E|-9---------9--------|---------------------|-7-------7-------|-7---------------|

[Pre-Chorus]

G|---------------------|---------------------|---------------------|-----------------|
D|---10--------10------|---11--------11------|---11--------11------|---9-------9-----|
A|------9-10------9-10-|------9-11------9-11-|------9-11------9-11-|-----7-9-----7-9-|
E|-8---------8---------|-9---------9---------|-9---------9---------|-7-------7-------|

G|---------------------|---------------------|---------------------|-----------------|------------|
D|---10--------10------|---11--------11------|---11--------11------|---9-------9-----|---9--------|
A|------9-10------9-10-|------9-11------9-11-|------9-11------9-11-|-----7-9-----7-9-|-----7-9----|
E|-8---------8---------|-9---------9---------|-9---------9---------|-7-------7-------|-7----------|

[Chorus 2]


G|----------------------|----------------------|----------------------|----------------------|
D|----------------------|----------------------|----------------------|----------------------|
A|-7-7-7-7-7-7-7-------|-4-4-4-4-4-4-4--2-2-2-|----------------------|-9-9-9-9-9-9-9-------|
E|----------------4-4-4-|----------------------|-5-5-5-5-5-5-5/-7-7-7-|----------------5-5-5-|

G|----------------------|----------------------|----------------------|----------------------|
D|----------------------|----------------------|----------------------|----------------------|
A|-7-7-7-7-7-7-7--6-6-6-|-4-4-4-4-4-4-4--2-2-2-|----------------------|-9-9-9-9-9-9-9-------|
E|----------------------|----------------------|-5-5-5-5-5-5-5/-7-7-7-|----------------5-5-5-|

[Bridge] (No bass)

[Chorus 3]

G|----------------------|----------------------|----------------------|----------------------|
D|----------------------|----------------------|----------------------|----------------------|
A|-7-7-7-7-7-7-7-------|-4-4-4-4-4-4-4--2-2-2-|----------------------|-9-9-9-9-9-9-9-------|
E|----------------4-4-4-|----------------------|-5-5-5-5-5-5-5/-7-7-7-|----------------5-5-5-|

G|----------------------|----------------------|----------------------|----------------------|
D|----------------------|----------------------|----------------------|----------------------|
A|-7-7-7-7-7-7-7--6-6-6-|-4-4-4-4-4-4-4--2-2-2-|----------------------|-9-9-9-9-9-9-9-------|
E|----------------------|----------------------|-5-5-5-5-5-5-5/-7-7-7-|----------------5-5-5-|

G|----------------------|----------------------|----------------------|----------------------|
D|----------------------|----------------------|----------------------|----------------------|
A|-7-7-7-7-7-7-7-------|-4-4-4-4-4-4-4--2-2-2-|----------------------|-9-9-9-9-9-9-9-------|
E|----------------4-4-4-|----------------------|-5-5-5-5-5-5-5/-7-7-7-|----------------5-5-5-|



G|-----------------|-----------------|
D|-----------------|-----------------|
A|-7-7-7-7-7-7-7-7-|-7-7-7-7-7-7-7-7-|
E|-----------------|-----------------|

| /  slide up
|   slide down
======================================================

What we have's the only thing worth fighting for
And I, I won't let nothing keep us apart
Through these fallouts there is
A truth and pain but through it all
You will always have my heart
I see a change on the horizon
Reasons to be frightened
I know that we can pull through
I Am here to tell you
Get up and fight
Get up and fight
I can't Do this thing without you
I'm lost in this without you
Get up and fight
We've gotta get up and fight
I can't handle this without you
Can't Do it without you
In our heads, a million voices scream and shout
And no one will ever hear a sound
Oh, only you can hush it
And calm the turmoil and the noise
And help me reach the higher ground
I see a change on the horizon
Reasons to be frightened
There's nothing we can't get through
I Am here to tell you
To get up and fight
Get up and fight
I can't Do this thing without you
I'm lost in this without you
Get up and fight
We've gotta get up and fight
I can't handle this without you
Can't Do it without you
Get up and fight
Get up and fight
I can't Do it without you
Get up and fight
Get up and fight
I can't Do this thing without you
I'm lost in this without you
Get up and fight
We've gotta get up and fight
I can't handle this without you
Can't Do it without you
I can't survive without your love in my life
You've gotta get up and fight
https://primanota.ru/muse/get-up-and-fight-chords.htm

Привет, гитарист!

Тебе подарок от сайта PrimaNota.ru

Забрать подарок
ВАМ ПОДАРКИ ОТ ПРОЕКТА
"ГИТАРНАЯ РЕВОЛЮЦИЯ"