Войти:  Facebook Google Twitter Vk Yandex Mail.ru
PrimaNota.ru - самый крупный в мире бесплатный архив песенных текстов, аккордов, табулатур и нот


Misc Computer Games - Donkey Kong Country 2 - Hot Head Bop - бас-таба, видео

Печатать
Лучшая metal-группа Петербурга

Donkey Kong Country 2 - Hot Head Bop

  • аккорды и текст

Donkey Kong Country 2 - Hot Head Bop (David Wise)

Tabbed by: Ash (XxThreeCheersxX)
E-mail: burdickash@gmail.com

Tuning: 5 String in Standard (or tune down to BEAD)

I.
G|----------------------------------------|
D|----------------------------------------|
A|-0-0----0-0--------0-0----0-0-----------| x 8
E|-------------------------------0--1--3--|
B|----------------------------------------|

II. 
G|----------------------------------------|
D|----------------------------------------|
A|----------------------------------------|
E|-1-1----1-1--------------------0--1--3--|
B|-------------------3-3----3-3-----------|

G|----------------------------------------|
D|----------------------------------------|
A|-0-0----0-0--------0-0----0-0-----------| 
E|-------------------------------0--1--3--|
B|----------------------------------------|

III. (come in after a short pause)
G|----------------------------------------|
D|----------------------------------------|
A|----------------------------------------|
E|-1-1----1-1--------3-3----3-3--0--1--3--|
B|----------------------------------------|

G|----------------------------------------|
D|----------------------------------------|
A|-0-0----0-0--------0-0----0-0-----------| x 8
E|-------------------------------0--1--3--|
B|----------------------------------------|

G|----------------------------------------|
D|----------------------------------------|
A|----------------------------------------|
E|-1-1----1-1--------3-3----3-3--0--1--3--|
B|----------------------------------------|

G|----------------------------------------------------------------------------|
D|----------------------------------------------------------------------------|
A|-0-0----0-0--------0-0----0-0-----------0-0----0-0--------0-0----0-0--1--2--|
E|-------------------------------0--1--3--------------------------------------|
B|----------------------------------------------------------------------------|

IV.
G|-------------------------------------------------------------------------------|
D|-------------------------------------------------------------------------------|
A|-3-3----3-3--------3-3----3-3--0-----------------------------------------------|
E|----------------------------------3--1--1-1----1-1--------1-1----1-1-----------|
B|----------------------------------------------------------------------4--2--1--|

G|-------------------------------------------------------------------------------|
D|-------------------------------------------------------------------------------|
A|-------------------------------------------------------------------------------|
E|-------------------------------------2--3-3----3-3--------3-3----3-3--3--4--5--|
B|-3-3----3-3--------3-3----3-3--------------------------------------------------|

G|-------------------------------------------------------------------------------|
D|-------------------------------------------------------------------------------|
A|-------------------------------------------------------------------------------|
E|-5-5----5-5--------5-5----5-5--5--3--1--1-1----1-1--------1-1----1-1-----------|
B|----------------------------------------------------------------------4--2--1--|

G|-------------------------------------------------------------------------------------|
D|-------------------------------------------------------------------------------------|
A|-------------------------------------------------------------------------------------|
E|----------------------------------------1--3-----------------------------------------|
B|-3-3----3-3--------3-3----3-3--------3--------0-0----0-0--------0-0----0-0--0--1--3--|

Happy playing!

| /  slide up
| \  slide down
| h  hammer-on
| p  pull-off
| ~  vibrato
| +  harmonic
| x  Mute note
===============================================================================   
Добавлено: 19.02.2018
Другие материалы по этой песне:
  • Аккорды и текст

Страница создана 19.02.2018
https://primanota.ru/misc-computer-games/donkey-kong-country-2-hot-head-bop-2-chords.htm

Привет, гитарист!

Тебе подарок от сайта PrimaNota.ru

Забрать подарок
ВАМ ПОДАРКИ ОТ ПРОЕКТА
"ГИТАРНАЯ РЕВОЛЮЦИЯ"