Войти:  Facebook Google Twitter Vk Yandex Mail.ru
PrimaNota.ru - самый крупный в мире бесплатный архив песенных текстов, аккордов, табулатур и нот


Misc Computer Games - Donkey Kong Country 3 - Brothers Bear Theme - бас-таба, видео

Печатать
Просмотров: 86
Лучшая metal-группа Петербурга

Donkey Kong Country 3 - Brothers Bear Theme

  • аккорды и текст

Donkey Kong Country 3 - Brothers Bear Theme (David Wise)

Tabbed by: Ash (XxThreeCheersxX)
E-mail: burdickash@gmail.com

Tuning: Standard

Play with a sweeeeet groove.

Happy playing!

I.
G|-----------------------------------------|
D|-----------------------------------------|
A|---------------------------3-4-5--5-5--5-|
E|-3--3-3--3-3--3-3--3-3--3----------------|

II.
G|----------------------------------------------------------------|
D|----------------------------------------------------------------|
A|----------------------------------------------------------------|
E|-3--3-3--3-3--3-3--3-3--3-3--3-3--3-3--3-3--3-3--3-3--3-3--3-3--|

G|----------------------------------------------------------|
D|----------------------------------------------------------|
A|---0--0-1--1-2--2-3--3-3--3-3--3-3--3-3--3-3--3-3--3-3--3-|
E|-3--------------------------------------------------------|

III.
G|---------------------------------------------------------------------------------|
D|---------------------------------------------------------------------------------|
A|--------------------------0--0-2--2-3--3-5--5-5--5-5--5-5--5-3--3-3--3-3--3-3--3-|
E|-3--3-3--3-3--3-3--3-3--3--------------------------------------------------------|

Happy playing!

| /  slide up
| \  slide down
| h  hammer-on
| p  pull-off
| ~  vibrato
| +  harmonic
| x  Mute note
===============================================================================
Добавлено: 19.02.2018
Другие материалы по этой песне:
  • Аккорды и текст

Страница создана 19.02.2018
https://primanota.ru/misc-computer-games/donkey-kong-country-3-brothers-bear-theme-chords.htm

Привет, гитарист!

Тебе подарок от сайта PrimaNota.ru

Забрать подарок
ВАМ ПОДАРКИ ОТ ПРОЕКТА
"ГИТАРНАЯ РЕВОЛЮЦИЯ"